PrimaNota.ru - самый крупный в мире бесплатный архив песенных текстов, аккордов, табулатур и нот


Charlie Simpson - Would You Love Me Any Less Live - таба, видео

Регистрация Запомнить меня
Войти через:  Facebook Google Twitter Vk Yandex Mail.ru

Charlie Simpson - Would You Love Me Any Less Live - таба, видео

Печатать
Просмотров: 41
Уроки эстрадного вокала в Санкт-Петербурге
-------------------------------------------------------------------------------
                 Would You Love Me Any Less - Charlie Simpson
-------------------------------------------------------------------------------
Tabbed by: DoctorProper

Standard Tuning: EADGBe
Capo: 5th Fret

This is the introduction for Charlie's Transmitter TV performance of "Would You Love Me Any Less" 
with Emma Blackerry. Watch here: https://youtu.be/vn-W2CAO2G8 

        Am
e |---------------------------------------------|               
B |----1-----1--------1-----------1--------1----|       
G |-------2-----2-----------2--------2----------|       
D |----------------------2----------------------|       
A |----0-----------0-----------0--------0-------|               
E |---------------------------------------------|       
  
        F
e |--------------------------------------------|                
B |----------1--------1----------1--------1----|        
G |-------0-----0--------0h2--------0----------|        
D |----3-----------3---------------------------|        
A |---------------------------0--------0-------|                
E |--------------------------------------------|        

        C
e |--------------------------------------------|                
B |----------1--------1----------1--------0----|        
G |-------0-----0-------------------2----------|        
D |----------------------0h2-------------------|        
A |----3-----------3----------3--------3-------|                
E |--------------------------------------------|        

        G
e |------------------------------------------|          
B |----------1--------0--------1-------------|  
G |-------------0-----------------0----------|  
D |-------0--------------0-------------------|  
A |------------------------------------------|          
E |----3-----------3--------3-------0--------|          


************************************

| h   hammer-on

************************************
Добавлено: 08.11.2015
Другие материалы по этой песне:
  • Аккорды и текст

Страница создана 08.11.2015
http://primanota.ru/charlie-simpson/would-you-love-me-any-less-live-chords.htm
Привет, Гость.
Предлагаем пройти революционный курс по гитаре.
Подарок от PrimaNota.Ru, забирай!