PrimaNota.ru - самый крупный в мире бесплатный архив песенных текстов, аккордов, табулатур и нот


Charlie Parr - To A Scrapyard Bustop - таба, видео

Регистрация Запомнить меня
Войти через:  Facebook Google Twitter Vk Yandex Mail.ru

Charlie Parr - To A Scrapyard Bustop - таба, видео

Печатать
Просмотров: 125
Уроки эстрадного вокала в Санкт-Петербурге
-------------------------------------------------------------------------------
                             To A Scrapyard Bustop - Charlie Parr
-------------------------------------------------------------------------------
Tabbed by: Mr Onions
Email:

Tuning: EADGBe

This is my first attempt at writing a tab, so I hope it's ok. I think it's pretty close.

This is the basic pattern for the song. It varies quite a bit, but just play it loosely 
it should sound about right.


Intro/Verse:

    G                                         D
e|----------------------------2-----3p2----------------------|
B|----0--0-------0------------3--3-------3--------0----------|
G|----0--0-------0--0--0-----2--2-----------0h2--------------|
D|----0-------------0-----0----------------------------------|
A|----2-----0h2-----2----------------------------------------|
E|-3---------------------------------------------------------|

     F                                         C
e|------------------------------------------------------------|
B|----1--1-------1-----------1--1-------1--1------------------|
G|----2--2-------2--2--0-----0--0-------0--0------------------|
D|----3-------------3--------2-----0h2-----2--0---------------|
A|----3-----1h3-----3-----3-----------------------------------|
E|-1----------------------------------------------------------|

Chorus:

     Am                                      C
e|------------------------------------------------------------|
B|----1--------1--1----------1-------1--1---------------------|
G|----2--------2--2--0-------0-------0--0---------------------|
D|----2-----------2-------------0h2-----2--0------------------|
A|-0--------0-------------3-----------------------------------|
E|------------------------------------------------------------|

As I say, this is just the basic pattern (or relatively close to it I think). He varies 
quite alot throughout the song in terms of what strings he plays,but just mess about 
that and you can probably work it out. Any comments/corrections very welcome.

http://www.charlieparr.com/
Добавлено: 25.02.2012
Другие материалы по этой песне:
  • Аккорды и текст

Страница создана 25.02.2012
http://primanota.ru/charlie-parr/to-a-scrapyard-bustop-chords.htm
Привет, Гость.
Предлагаем пройти революционный курс по гитаре.
Подарок от PrimaNota.Ru, забирай!