PrimaNota.ru - самый крупный в мире бесплатный архив песенных текстов, аккордов, табулатур и нот


Charlie Parr - Annie Melton - таба, видео

Регистрация Запомнить меня
Войти через:  Facebook Google Twitter Vk Yandex Mail.ru

Charlie Parr - Annie Melton - таба, видео

Печатать
Просмотров: 167
---------------------------------------------------------------------------
                              annie melton -  charlie parr
---------------------------------------------------------------------------
Tabbed by:johnsin
Email:

Tuning:standard

e|-----3-------3------0h2-------------0----3----3------3------------------|
B|-----------------------3--------0h1---------1------1--------------------|
G|--0-------0-------2------2----2-------2------0------0-------------------|
D|----0------0-------0----0------2----------------0h2---------------------|
A|-------0h2------0------------0------------3-----------------------------|
E|-3----------------------------------------------------------------------|

e|-----3-----3-----3-----3-----3-----3----3-----0-------------------------|
B|---------------1-----1--------------------------------------------------|
G|---0-----0------0-----0----0-----0----0-----0---------------------------|
D|----0-----0-------0h2-------0-----0----0-----0--------------------------|
A|------0h2-----3---------------0h2--------0h2----------------------------|
E|--3-----------------------3----------3----------------------------------|

e|-----0h3--0-------3------3----3-------3----3------3---------------------|
B|---3----3------1-------1------------------------------------------------|
G|----2----2------0-------0---0-------0----0------0-----------------------|
D|--0-----------------0h2------0-------0----0------0----------------------|
A|--0----------3------------------0h2----------0h2------------------------|
E|---------------------------3------------3-------------------------------|



Lay down your head annie your goin home,
you shoulda been gone long ago, you shoulda been gone long ago

when tom walked back from the civil war,
there waited two women by his door, ya there waited two women by his door

guitar break
 
she killed poor lo lo and buried her down,
in shallow gave on the mountain side, in shallow gave on the mountain side

for loves jealous ways tom took the fall,
headed out for Arkansas, headed out for Arkansas

guitar break x2

oh annie melton toms dead and gone,
hung for the sins you have done, hung for the sin you have done

hang your head down annie hang your head and cry,
make tear marks before you die, make tear marks before you die

guitar break
 
long have you lived with this blood on your hands
 the flames of hell around you head, the flames of hell around you head 

lay down your head annie  your goin home
shoulda been gone long ago, shoulda been gone long ago

guitar break x2

Добавлено: 27.05.2012
Другие материалы по этой песне:
  • Аккорды и текст

Страница создана 27.05.2012
http://primanota.ru/charlie-parr/annie-melton-chords.htm
Привет, Гость.
Предлагаем пройти революционный курс по гитаре.
Подарок от PrimaNota.Ru, забирай!