PrimaNota.ru - самый крупный в мире бесплатный архив песенных текстов, аккордов, табулатур и нот


Charlie Hilton - 100 Million - таба, видео

Регистрация Запомнить меня
Войти через:  Facebook Google Twitter Vk Yandex Mail.ru

Charlie Hilton - 100 Million - таба, видео

Печатать
Просмотров: 58
-------------------------------------------------------------------------------
                Charlie Hilton - 100 Million (Feat. Mac DeMarco)
-------------------------------------------------------------------------------
Tabbed by: the_raincoats


Tuning: Standard



Chords: A, D, B, Em



Second Guitar:

e|-2-0-----------------------------------------------------------------------|
B|-1-----1-0-----------------------------------------------------------------|
G|-2-----2-------------------------------------------------------------------|
D|-0-----0-------------------------------------------------------------------|
A|---------------------------------------------------------------------------|
E|---------------------------------------------------------------------------|

Intro: 

e|---------------------------------------------------------------------------|
B|-----10--10--10--10--12/14/12-10-------------------------------------------|
G|---------------------------------------------------------------------------|
D|-8/11--11--11--11--11------------------------------------------------------|
A|---------------------------------------------------------------------------|
E|---------------------------------------------------------------------------|
                                                                                x2
e|---------------------------------------------------------------------------|
B|-----12--12--12--12--12--12------------------------------------------------|
G|---------------------------------------------------------------------------|
D|-9/12--12--12--12--12--12--------------------------------------------------|
A|---------------------------------------------------------------------------|
E|---------------------------------------------------------------------------|



Verse 1: A,D,B,Em (Same for chorus)



Bridge:

e|---------------------------------------------------------------------------|
B|-----10--10--10--10--12/14/12-10-------------------------------------------|
G|---------------------------------------------------------------------------|
D|-8/11--11--11--11--11------------------------------------------------------|
A|---------------------------------------------------------------------------|
E|---------------------------------------------------------------------------|
                                                                                x2
e|---------------------------------------------------------------------------|
B|-----12--12--12--12--12--12------------------------------------------------|
G|---------------------------------------------------------------------------|
D|-9/12--12--12--12--12--12--------------------------------------------------|
A|---------------------------------------------------------------------------|
E|---------------------------------------------------------------------------|



Verse 2: A,D,B,Em



Chorus 2: A,D,B,Em 



Solo 1:

e|---------------------------------------------------------------------------|
B|---------------------------------------------------------------------------|
G|-9--9-9---9-9--9---9/14--11---11-11---11-11---11--11/13--------------------| x2
D|---------------------------------------------------------------------------|
A|---------------------------------------------------------------------------|
E|---------------------------------------------------------------------------|



Chorus 3: A,D,B,Em



Solo 2:

e|---------------------------------------------------------------------------|
B|---------------------------------------------------------------------------|
G|-9--9-9---9-9--9---9/14-11---11-11---11-11---11--11/13---------------------| x8
D|---------------------------------------------------------------------------|
A|---------------------------------------------------------------------------|
E|---------------------------------------------------------------------------|



End

************************************

| /   slide up
| \   slide down
| h   hammer-on
| p   pull-off
| ~   vibrato
| +   harmonic
| x   Mute note
| b   Bend
| pb  Pre-bend
| br  Bend release
| pbr Pre-bend release
| brb Bend release bend

************************************
Добавлено: 15.06.2016
Другие материалы по этой песне:
  • Аккорды и текст

Страница создана 15.06.2016
http://primanota.ru/charlie-hilton/100-million-chords.htm
Привет, Гость.
Предлагаем пройти революционный курс по гитаре.
Подарок от PrimaNota.Ru, забирай!