PrimaNota.ru - самый крупный в мире бесплатный архив песенных текстов, аккордов, табулатур и нот


Charlie Daniels - Long Haired Country Boy - аккорды и текст, таба, видео

Регистрация Запомнить меня
Войти через:  Facebook Google Twitter Vk Yandex Mail.ru

Charlie Daniels - Long Haired Country Boy - аккорды и текст, таба, видео

Печатать
Просмотров: 150
Авторы: Charlie Daniels

Long Haired Country Boy
Charlie Daniels
Charlie Daniels  Long Haired Country Boy
WRITER/PREFORMER: Charlie Daniels

Jimmy Adams  (adams@wdl.loral.com)
Duane Quigley (beerliver28@yahoo.com)

riff

e----------------------------------------------------
B----------------------------------------------------
G---3---3-----5--------------------------------------
D---------5-7---7-5-3-0-7-5-3-0----3-5-3-------3---3-
A-5---5------------------------3-5-------3-5-5---5---
E----------------------------------------------------

********************************************************
Here are the changes I made. Its the opening riff and
it sounds right.

E ----2------2----------------------------------------------------------------
B ----3------3----------------------------------------------------------------
G ----2------2----------------------------------------------------------------
D -0--0--0--0---------------3--------7-0-5-0-3-0-----------------0-------
A ----------------------3--------5-------------------3-0------3--5----------
E -----------------3^5----5-------------------------------3^5---------------
                          h                           
                   h
Thanks to Jimmy Adam for the original posting of the
song.
Duane Quigley (beerliver28@yahoo.com)

********************************************************

verse 1

D
People say I'm no good ...

Cause I get stoned in the mornin, ...

Kinda like my ole blue tick ...
                                               D7
I ain't got no money ...

Chorus
            G
And I ain't askin' ...
                        D
If I can't get ...
             A7
If you don't like the ...
          G                                 D
You just leave this ...

verse 2
D
Poor girl ...

Rich man ...

Drunkard ...
                                                      
     D7
I don't want much of nothing at ...

Chorus 

verse 3

Preacher man talkin' on the radio, puttin' ...

Chorus

Jimmy Adams   adams@wdl.loral.com
     
Добавлено: 03.07.2013
Другие материалы по этой песне:
  • Аккорды и текст

Страница создана 24.05.2012
http://primanota.ru/charlie-daniels/long-haired-country-boy-chords.htm
Привет, Гость.
Предлагаем пройти революционный курс по гитаре.
Подарок от PrimaNota.Ru, забирай!