PrimaNota.ru - самый крупный в мире бесплатный архив песенных текстов, аккордов, табулатур и нот


Charlie Daniels Band - The Devil Went Down To Gorgia - таба, видео

Регистрация Запомнить меня
Войти через:  Facebook Google Twitter Vk Yandex Mail.ru

Charlie Daniels Band - The Devil Went Down To Gorgia - таба, видео

Печатать
Просмотров: 134
verse
E|---------------------------------||
B|---------------------------------||
G|----33------33------33--55----1--||
D|33--33--33--33--33--33--55----2--||
A|33--11--33--11--33--11--33----2--||
E|11------11------11------------0--||

Chorus
E|---------------------------------||
B|---------------------------------||
G|----33--55--33-----33--55---1----||
D|33--33--55--33--33-33--55---2----||
A|33--11--33--11--33-11--33---2----||
E|11--------------11----------0----||

Solo (verse is played in the backround)
E|-------------------------------------------------||
B|6--------------6------6B~r--6--------------------||
G|--8--------------8------------8------------------||
D|----10-8-8986------10-----------10-8-8986-8-8-6--|| x2
A|-------------------------------------------------||
E|-------------------------------------------------||

brigde
E|---------------------------------||
B|------3-------3-------3---3---3--||
G|---------------------------------||
D|--3--3-3--3--3-3--3--3-3-5-5-3-3-||
A|-3-31----3-31----3-31---3---1----||
E|1-------1-------1----------------||

end solo
(with wah)
E|13--13----13------13------13-----13-----13-----13-------------12B--||
B|--------13--11b-13--11b-13--11b13--11b13--11b13--11b9--9-----------||
G|-----------------------------------------------------10-10---------||
D|-------------------------------------------------------------------||
A|-------------------------------------------------------------------||
E|-------------------------------------------------------------------||

E|--13----13-----------------------------------------------------------||
B|11b-11b---13119--99h11p9-----9---9119-119--9---------9------------9--||
G|---------------10-------10-10-10---------10-108-----8-10---8108-10-10||
D|-----------------------------------------------10810-----------------||
A|---------------------------------------------------------------------||
E|---------------------------------------------------------------------||

E|---------------------------------||
B|---------------------------------||
G|10-10810~~~~~--------------------||
D|---------------------------------||
A|---------------------------------||
E|---------------------------------||
Добавлено: 05.05.2012
Другие материалы по этой песне:
  • Аккорды и текст

Страница создана 05.05.2012
http://primanota.ru/charlie-daniels-band/the-devil-went-down-to-gorgia-chords.htm
Привет, Гость.
Предлагаем пройти революционный курс по гитаре.
Подарок от PrimaNota.Ru, забирай!