PrimaNota.ru - самый крупный в мире бесплатный архив песенных текстов, аккордов, табулатур и нот


Charlie Brown Jr - Vicios E Virtudes - аккорды и текст, видео

Регистрация Запомнить меня
Войти через:  Facebook Google Twitter Vk Yandex Mail.ru

Charlie Brown Jr - Vicios E Virtudes - аккорды и текст, видео

Печатать
Просмотров: 39
Vicios E Virtudes
Charlie Brown Jr
Tom: A (com acordes na forma de G#)
Capotraste na 1ª casa
    D#9
Nem tudo lhe cai bem
      Bb
é um risco que se assume
        C#9                G#
O bom é não iludir ninguém
    D#9
Nem tudo lhe cai bem
      Bb
é um risco que se assume
        C#9                G#
O bom é não iludir ninguém

Solo 2x:


      D#9                    Bb                      C#9                  G#
E|---------------------|-----------------------|-----------------------------------|
B|---------------------|-----------------------|-----------------------------------|
G|-10h12-12------------|-10h12-12---10h12------|-10h12-1212-13-12-10--10---12------|
D|----------13-13-13-13|----------13------13-13|---------------------13---13---13~-|
A|---------------------|-----------------------|-----------------------------------|
E|---------------------|-----------------------|-----------------------------------|



          D#9               Bb
Às vezes faço o que quero
          C#9                      G#
Às vezes faço o que tenho que fazer
          D#9               Bb
Às vezes faço o que quero
          C#9                      G#
Às vezes faço o que tenho que fazer

  D#9               Bb
Eu nunca tive muito a ver com ela
   C#9                       G#m
O livro que ela ama eu não li
D#9              Bb
  Eu nunca tive muito a ver com ela
   C9                       G#
O filme que ela adora eu não vi


E|--------------------------------------|
B|------4--------4--------4--------4----|
G|----3---3----3---3----3---3----3---3--|
D|--------------------------------------| (2x)
A|--6-----------------4-----------------|
E|-----------6-----------------4--------|



D#9                      Bb
Como chegar nela eu nem sei
               C#9                         G#
Ela é tão interessante e eu aqui pichando muro
D#9                     Bb
Como chegar nela eu nem sei
                C9                        G#
  Ela é tão diferente e eu igual a todo mundo


E|------------------------|--------------|--------------------------------|   |
B|------------------------|--------------|--------------------------------|   |
G|-12121212121212-10-1010-|-10-12-10-----|--------------------------------|   |
D|------------------------|-----------13-|-13131313131313-12-121212121212-|   |
A|------------------------|--------------|--------------------------------|   |
E|------------------------|--------------|--------------------------------|


B|-11/13----11---9----6----8----|      Aqui a batida muda, e fica + rapido.   |
G|-------10----8----7----7---8--|                                             |
D|------------------------------|                                             |
A|------------------------------|                                             |
E|------------------------------|                                             /



D#9      Bb                   C#9            G#
Logo eu, que sempre achei legal ser tão errado
D#9      Bb                   C#9            G#
Eu que nem sempre calmo, mas nunca preocupado
D#9      Bb                   C#9            G#
Logo eu, que sempre achei legal ser tão errado
D#9      Bb                   C#9            G#
Eu que nem sempre calmo, mas nunca preocupado

  (Cm           Bb           G#           G#) (2x)
        Essas notas sao tocadas no baixo

E|---------------------------------------------------------|
B|--------8----------------8----------------8--------8-----|
G|------8---8----8-------8---8----8-------8---8----8---8---|
D|---10-------10------10-------10-------6--------6---------|  (2x)
A|---------------------------------------------------------|
E|-8----------------6--------------------------------------|



    D#9
Nem tudo lhe cai bem
      Bb
é um risco que se assume
        C#9                G#
O bom é não iludir ninguém
    D#9
Nem tudo lhe cai bem
      Bb
é um risco que se assume
        C9                 G#
O bom é não iludir ninguém

Solo 2x:


      D#                    Bb                      C#                  G#
E|---------------------|-----------------------|-----------------------------------|
B|---------------------|-----------------------|-----------------------------------|
G|-10h12-12------------|-10h12-12---10h12------|-10h12-1212-13-12-10--10---12------|
D|----------13-13-13-13|----------13------13-13|---------------------13---13---13~-|
A|---------------------|-----------------------|-----------------------------------|
E|---------------------|-----------------------|-----------------------------------|



          D#9             Bb
Às vezes faço o que quero
          C#9                      G#
Às vezes faço o que tenho que fazer
          D#9               Bb
Às vezes faço o que quero
          C9                      G#
Às vezes faço o que tenho que fazer

bicorde (palm mute, abafe as cordas com a mão dando palhetadas rápidas)

  D#9                    Bb               C#9            G#
Um dia eu volto pra fazer só a sua vontade, mas
             D#9                      Bb
Se eu não puder fazer você ser a pessoa mais feliz
          C9                   G#
Eu chego mais perto disso possível

D#9                Bb                C#9            G#
Todos os inconvenientes a nosso favor
     D#9             Bbm
E diferenças sim, mas
         C9                 G#
Nunca maiores do que o nosso valor

(Refrão)

Bb                     C#9             G#
O tempo às vezes é alheio à nossa vontade, mas
           Bb                    C#9              G#
Só o que é bom dura tempo o bastante pra se tornar inesquecível

E|-----------------------------|-----------------|
B|-----------------------------|-----------------|
G|--------6-6------------------|-------6-6-------|
D|--8-8---6-6---6--6-6-6-6-6-6-|--8-8--6-6--6----|    (2x)
A|--8-8---4-4---6--6-6-6-6-6-6-|--8-8--4-4--6----|
E|--6-6---------4--4-4-4-4-4-4-|--6-6-------4----|


FONTE: CIFRACLUB
Добавлено: 06.12.2015
Вам также может быть интересно:
Другие материалы по этой песне:
  • Аккорды и текст

Страница создана 06.12.2015
http://primanota.ru/charlie-brown-jr/vicios-e-virtudes-chords.htm
Привет, Гость.
Предлагаем пройти революционный курс по гитаре.
Подарок от PrimaNota.Ru, забирай!