PrimaNota.ru - самый крупный в мире бесплатный архив песенных текстов, аккордов, табулатур и нот


Charlie Brown Jr - Puxa Carro - бас-таба, видео

Регистрация Запомнить меня
Войти через:  Facebook Google Twitter Vk Yandex Mail.ru

Charlie Brown Jr - Puxa Carro - бас-таба, видео

Печатать
Просмотров: 47
Уроки эстрадного вокала в Санкт-Петербурге
-------------------------------------------------------------------------------
                             PUXA CARRO - Charlie Brown Jr
-------------------------------------------------------------------------------
Tabbed by: polaco_mp3z
E-mail: polacomp3z@gmail.com

Tuning: Meio tom abaixo (Half Step Down)


Intro

F#|----------|------------------------|
C#|----------|------------------------|
G#|-7/15\7---|-7-7-07-10-7-5-7------5-|
D#|----------|------------------5-7---|

F#|------------------------|
C#|------------------------|
G#|-7-7-07-10-7-5-7------5-|
D#|------------------5-7---|


Versos

F#|------------------------|
C#|------------------------|
G#|-7-7-07-10-7-5-7------5-|
D#|------------------5-7---|

...e termina com
F#|------------------------|
C#|------------------------|
G#|-7-7-07-10-7-5-7-5------|
D#|-------------------7-5--|


Refrãos

    T T P  T T P T P
F#|---------------------|
C#|------5------7---7---|
G#|---------------------| (x4)
D#|--3-x----x-x---x---5-|



Interlúdios

F#|----------------------------|
C#|---10-10-9-9-0--------------|
G#|---------------10-10-9-9-0--| (x4)
D#|----------------------------|




| T - thumb
| P - pop
| /  slide up
| \  slide down
| x  Mute note
===============================================================================
Добавлено: 24.05.2016
Вам также может быть интересно:
Другие материалы по этой песне:
  • Аккорды и текст

Страница создана 24.05.2016
http://primanota.ru/charlie-brown-jr/puxa-carro-chords.htm
Привет, Гость.
Предлагаем пройти революционный курс по гитаре.
Подарок от PrimaNota.Ru, забирай!