PrimaNota.ru - самый крупный в мире бесплатный архив песенных текстов, аккордов, табулатур и нот


Charlie Brown Jr - Longe De Voce - бас-таба, видео

Регистрация Запомнить меня
Войти через:  Facebook Google Twitter Vk Yandex Mail.ru

Charlie Brown Jr - Longe De Voce - бас-таба, видео

Печатать
Просмотров: 70
-------------------------------------------------------------------------------
                             LONGE DE VOCE - Charlie Brown Jr
-------------------------------------------------------------------------------
Tabbed by: polaco_mp3z
E-mail: polacomp3z@gmail.com

Tuning: Standard (Padrão - EAGD)

Comentário: Não está 100% correto, mas está bem próximo. (versão de estúdio).


Intro
                       E     E  S S S S E  E  E  S S S S  
G||-----------------------|-------4-x--------------5-x---|
D||-----------------------|-----------x----------------0-|
A||--------------------0--|--2----------3----------------|
E||-----------------------|------------------------------|


  E  S S S S E  E  E  S S S S    E  S S S S E  E  E  S S S S  
-------7-x--------------9-x---|------------------------7-x---|
--5--------7----------------9-|-------9-x------------------7-|
-------------5----------------|--7--------9------------------|
------------------------------|-------------7----------------|

                            VERSO 1
  S E  S E  E  E  E  E  E     E  S S S S E  E  E  S S S S  
---------------------------|-------4-x--------------5-x---|
---------------------------|-----------x----------------0-|
--5----5----------------0--|--2----------3----------------|
------------2--2--3--3-----|------------------------------|


  E  S S S S E  E  E  S S S S    E  S S S S E  E  E  S S S S  
-------7-x--------------9-x---|------------------------7-x---|
--5--------7----------------9-|-------9-x------------------7-|
-------------5----------------|--7--------9------------------|
------------------------------|-------------7----------------|


  S E  S E  E  E  E  E  E     E  S S S S E  E  E  S S S S  
---------------------------|-------4-x--------------5-x---|
---------------------------|-----------x----------------0-|
--5----5----------------0--|--2----------3----------------|
------------2--2--3--3-----|------------------------------|


  E  S S S S E  E  E  S S S S     S  S  S S S S E  E  E  S S S S  
-------7-x--------------9-9-7s-|--9s-7s-9------------------7-x---|
--5--------7-------------------|------------x------------------7-|
-------------5-----------------|--------------x------------------|
-------------------------------|----------------7----------------|


  S E  S E  E  E  E  E  E     E  S S S S E  E  E  S S S S  
---------------------------|-------4-x--------------5-x---|
---------------------------|-----------x----------------0-|
--5----5----------------0--|--2----------3----------------|
------------2--2--3--3-----|------------------------------|


  E  S S S S E  E  E  S S S S    E  S S S S E  E  E  S S S S  
-------7-x--------------9-x---|------------------------7-x---|
--5--------7----------------9-|-------9-x------------------7-|
-------------5----------------|--7--------9------------------|
------------------------------|-------------7----------------|


  S E  S E  E  E  E  E  E     E  S S S S E  E  E  S S S S  
---------------------------|-------4-x--------------5-x---|
---------------------------|-----------x----------------0-|
--5----5----------------0--|--2----------3----------------|
------------2--2--3--3-----|------------------------------|


  E  S S S S E  E  E  S S S S    E  S S S S E  E  E  S S S S  
-------7-x--------------9-x---|------------------------7-x---|
--5--------7----------------9-|-------9-x------------------7-|
-------------5----------------|--7--------9------------------|
------------------------------|-------------7----------------|

                             REFRÃO 1
  S E  S E  E  E  E  E  E     E  E  E  E  E  E   E.   S  
---------------------------|----------------------------|
---------------------------|--------5-----7-----10s---5-|
--5----5-------------------|--7--7-----7-----7----------|
------------2--2--3--3-----|----------------------------|


  E  E  E  E  E  E  E  S S    E  E  E  E  E  E  E  E   
--------------5------------|--------------------------|
---------------------------|--------------------5--7--|
--3--3--3--3-----3--3--x-x-|--7--7--7--7--7--7--------|
---------------------------|--------------------------|


  E  E  E  E  E  E  E  E     E  E  E  E  E   E   E   E   
--------------------------|--9--9--9--9--9----------12--|
--------------------------|-----------------12--12------|
--3--3--3--3--3--3--3--3--|-----------------------------|
--------------------------|-----------------------------|


   E   E   E   E   E  E   E  E     E  E  E  E  E  E  E  E   
--------------------------------|--------------------------|
--10--10--10--10--10--9---------|--------------------5--7--|
-------------------------10--9--|--7--7--7--7--7--7--------|
--------------------------------|--------------------------|


  E  S S S S E  S S S S E  S S    E  S S S S E  S S S S E   S S  
-------------------------------|--------------------------------|
-------------------------------|------------------------5S------|
--3----3-3-3-3----3-3-3-3--3---|--7----7-7-7-7----7-7-7---------|
-------------------------------|--------------------------------|


   E  S  S  S  S  E  S  S  S  S E   E     E  S S S S E  S S S S E  E   
---------------------------------------|------------------------------|
--10----10-10-10-10----10-10-10-9------|------------------------5--7--|
-----------------------------------10--|--7----7-7-7-7----7-7-7-------|
---------------------------------------|------------------------------|

                                01:12
  E  S S S S E  S S S S E  S S    E  E  E  S S S S E  E  E   
-------------------------------|----------------------------|
-------------------------------|---------------7---5--------|
--3----3-3-3-3----3-3-3-3--3---|--7-----7----7---7----7--5--|
-------------------------------|----------------------------|


  E  E  E  S S S S E  E  E     E  E  E  S S S S E  E  E   
----------------------------|----------------------7--9--|
---------------7---7--------|---------------7---9--------|
-----5--5----5---5----5--5--|--7-----7----7---7----------|
----------------------------|----------------------------|


  E  E  E  S  S  S  S  S  S  S  S E     E  E  E  S S S S E  E  E   
-----9--9-------12----11----11-------|--9-----9-------------------|
-------------12----12----12----12----|----------------------------|
-------------------------------------|-------------0-7-0-7--7--5--|
-------------------------------------|----------------------------|


  E  E  E  S S S S E  E  E     E  E  E  S S E  E  E  E   
----------------------------|---------------------------|
---------------7---7--------|---------------------------|
-----5--5----5---5----5--5--|--3-----3----0-3--3--3-----|
----------------------------|------------------------5--|

                             1:29
  E  E  E  S S E  E  E  E     E  S S S S E  E  E  S S S S  
---------------------------|-------4-x--------------5-x---|
---------------------------|-----------x----------------0-|
---------------------------|--2----------3----------------|
-----5--5----5-5--5--5--5--|------------------------------|


  E  S S S S E  E  E  S S S S     S  S  S S S S E  E  E  S S S S  
-------7-x--------------9-9-7s-|--9s-7s-9------------------7-x---|
--5--------7-------------------|------------x------------------7-|
-------------5-----------------|--------------x------------------|
-------------------------------|----------------7----------------|

                             VERSO 2
  S E  S E  E  E  E  E  E     E  S S S S E  E  E  S S S S  
---------------------------|-------4-x--------------5-x---|
---------------------------|-----------x----------------0-|
--5----5----------------0--|--2----------3----------------|
------------2--2--3--3-----|------------------------------|


  E  S S S S E  E  E  S S S S    E  S S S S E  E  E  S S S S  
-------7-x--------------9-x---|------------------------7-x---|
--5--------7----------------9-|-------9-x------------------7-|
-------------5----------------|--7--------9------------------|
------------------------------|-------------7----------------|


  S E  S E  E  E  E  E  E     E  S S S S E  E  E  S S S S  
---------------------------|-------4-x--------------5-x---|
---------------------------|-----------x----------------0-|
--5----5----------------0--|--2----------3----------------|
------------2--2--3--3-----|------------------------------|


  E  S S S S E  E  E  S S S S     S  S  S S S S E  E  E  S S S S  
-------7-x--------------9-9-7s-|--9s-7s-9------------------7-x---|
--5--------7-------------------|------------x------------------7-|
-------------5-----------------|--------------x------------------|
-------------------------------|----------------7----------------|

                            REFRÃO 2
  S E  S E  E  E  E  E  E     E  E  E  E  E  E  E  E    
---------------------------|---------------------------|
---------------------------|---------------------------|
--5----5-------------------|--7--7--7--7--7--7--7--7S--|
------------2--2--3--3-----|---------------------------|


  E  E  E  E  E  E  E  S S    E  E  E  E  E  E  E  E   
---------------------------|--------------------------|
---------------------------|--------------------5--7--|
--3--3--3--3--3--3--3--x-x-|--7--7--7--7--7--7--------|
---------------------------|--------------------------|


   E   E   E   E   E   E   E   E     E  E  E  E  E   E   E   E   
----------------------------------|--9--9--9--9--9----------12--|
--10--10--10--10--10--10--10--10--|-----------------12--12------|
----------------------------------|-----------------------------|
----------------------------------|-----------------------------|


   E   E   E   E   E  E   E  E     E  E  E  E  E  E  E  E   
--------------------------------|--------------------------|
--10--10--10--10--10--9---------|--------------------5--7--|
-------------------------10--9--|--7--7--7--7--7--7--------|
--------------------------------|--------------------------|


  E  S S S S E  S S S S E  S S    E  S S S S E  S S S S E  S  S  
-------------------------------|--------------------------------|
-------------------------------|--------------------------------|
--3----3-3-3-3----3-3-3-3--3-3-|--7----7-7-7-7----7-7-7-7--7S---|
-------------------------------|--------------------------------|


  E  S S S S E  S S S S E  S S    E  S S S S E  S S S S E  E   
-------------------------------|------------------------------|
-------------------------------|------------------------5--7--|
--3----3-3-3-3----3-3-3-3--3---|--7----7-7-7-7----7-7-7-------|
-------------------------------|------------------------------|


   E  S  S  S  S  E  S  S  E  E   E      E  E  E  S S S S E  E  E   
--------------------------------------|----------------------------|
--10----10-10-10-10----10-10--9-------|---------------7---5--------|
---------------------------------10S--|--7-----7----7---7----7--5--|
--------------------------------------|----------------------------|


  E  E  E  S S S S E  E  E     E  E  E  S S S S E  E  E   
----------------------------|----------------------7--9--|
---------------7---7--------|---------------7---9--------|
-----5--5----5---5----5--5--|--7-----7----7---7----------|
----------------------------|----------------------------|


  E  E  E  E  S S E  E   E     E  E  E  S S S S E  E  E   
-----9--9--9--9-9-7---------|----------------------------|
---------------------9------|---------------7---5--------|
------------------------10--|--7-----7----7---7----7--5--|
----------------------------|----------------------------|


  E  E  E   S  S  S  S  S  S  S  S E     E  E  E  S S E  E  E  E   
-----------------12----11----11-------|---------------------------|
--------------12----12----12----12----|---------------------------|
-----5--5/----------------------------|--3-----3----0-3--3--3-----|
--------------------------------------|------------------------5--|


  E  E  E  S S E  E  E  E     E  E  E  S S S S E  E  E   
---------------------------|----------------------------|
---------------------------|---------------7---5--------|
---------------------------|--7-----7----7---7----7--5--|
-----5--5----5-5--7--5--3--|----------------------------|


  E  E  E  S S S S E  E  E     E  E  E  S S S S E  E  E   
----------------------------|----------------------7--9--|
---------------7---7--------|---------------7---9--------|
-----5--5----5---5----5--5--|--7-----7----7---7----------|
----------------------------|----------------------------|


  E  E  E  E  S S E  E   E     E  E  E  S S S S E  E  E   
-----9--9--9--9-9-7---------|----------------------------|
---------------------9------|---------------7---5--------|
------------------------10--|--7-----7----7---7----7--5--|
----------------------------|----------------------------|


  E  E  E   S  S  S  S  S  S  S  S E     E  E  E  S S E  E  E  E   
-----------------12----11----11-------|---------------------------|
--------------12----12----12----12----|---------------------------|
-----5--5/----------------------------|--3-----3----0-3--3--3-----|
--------------------------------------|------------------------5--|


                                           NH                
  E  E  E  S S E  E  E  E     E  S S S S   E  E  E  S S S S  
---------------------------|-------4-x---<>4----------5-x---|
---------------------------|-----------x-<>4--------------0-|
---------------------------|--2-----------------------------|
-----5--5----5-5--5--5-----|--------------------------------|


  E  S S S S E  E  E  S S S S    E  S S S S E  E  E  S S S S  
-------7-x--------------9-x---|------------------------7-x---|
--5--------7----------------9-|-------9-x------------------7-|
-------------5----------------|--7--------9------------------|
------------------------------|-------------7----------------|


  E  S E  S E  E  E  E  E     E  S S S S E  E  E  S S S S  
--7------------------------|-------4-x--------------5-x---|
-----7---------------------|-----------x----------------0-|
-------5----------------0--|--2----------3----------------|
------------2--2--3--3-----|------------------------------|


  E  S S S S E  E  E  S S S S    E  S S S S E  E  E  S S S S  
-------7-x--------------9-x---|------------------------7-x---|
--5--------7----------------9-|-------9-x------------------7-|
-------------5----------------|--7--------9------------------|
------------------------------|-------------7----------------|


  E  E  E  E  E  E  E  E     W                  
--------------------------|-------------------||
--------------------------|-------------------||
--5--5--------------------|-------------------||
-----------2--2--3--3-----|-------------------||




Duration Legend
---------------
W - whole
H - half
Q - quarter
E - 8th
S - 16th


Tablature Legend
----------------
x - dead note
NH - natural harmonic
S - shift slide
s - legato slide
/ -  slide into from below or out of upwards
\ -  slide into from above or out of downwards
Добавлено: 17.05.2014
Другие материалы по этой песне:
  • Аккорды и текст

Страница создана 17.05.2014
http://primanota.ru/charlie-brown-jr/longe-de-voce-chords.htm
Привет, Гость.
Предлагаем пройти революционный курс по гитаре.
Подарок от PrimaNota.Ru, забирай!