PrimaNota.ru - самый крупный в мире бесплатный архив песенных текстов, аккордов, табулатур и нот


Charlie Boyer And The Voyeurs - I Watch You - таба, видео

Регистрация Запомнить меня
Войти через:  Facebook Google Twitter Vk Yandex Mail.ru

Charlie Boyer And The Voyeurs - I Watch You - таба, видео

Печатать
Просмотров: 121
Charlie Boyer and The Voyeurs 'I Watch You'
tab by theFlavio


intro 
e|------------------------------------0-0-0-0---0--0-0------|
B|------------------------------------2-2-2-2---0--0-0------|
G|--1--1--1--1--1--1--1--1--1--1--1---2-2-2-2---1--1-1------|
D|--2--2--2--2--2--2--2--2--2--2--2---2-2-2-2---2--2-2------| 
A|--2--2--2--2--2--2--2--2--2--2--2---0-0-0-0---2--2-2------|
E|--0--0--0--0--0--0--0--0--0--0--0-------------0--0-0------|
pm......     .......     .......


verse
e|--0--0--0--0--0--0--0--0--0--0--0---0-0-0-0---0--0-0------|
B|--0--0--0--0--0--0--0--0--0--0--0---2-2-2-2---0--0-0------|
G|--1--1--1--1--1--1--1--1--1--1--1---2-2-2-2---1--1-1------|
D|--2--2--2--2--2--2--2--2--2--2--2---2-2-2-2---2--2-2------| 
A|--2--2--2--2--2--2--2--2--2--2--2---0-0-0-0---2--2-2------|
E|--0--0--0--0--0--0--0--0--0--0--0-------------0--0-0------|


chorus
e|--0--0--1--1--1--0--0----2--2--3--3--3--2--2--------------|
B|--1--1--1--1--1--0--0----3--3--3--3--3--3--3--------------|
G|--0--0--0--0--0--0--0----2--2--2--2--2--2--2--------------|
D|--2--2--2--2--2--2--2----0--0--0--0--0--0--0--------------| 
A|--3--3--3--3--3--3--3----0--0--0--0--0--0--0--------------|
E|----------------------------------------------------------|

verse
chorus


solo 
e|---------------------------------------------------------------------------|
B|-------8-9-10-8----8-------------------------------------------------------|
G|--7-10----------10------10-9-10-9-10-9-7-9---10-9-7-9------9-10---9--------|
D|-------------------------------------------------------10-------------10---| 
A|---------------------------------------------------------------------------|
E|---------------------------------------------------------------------------|

e|---------------------------------------------------------------------------|
B|-------8-9-10-8----8-------------------------------------------------------|
G|--7-10----------10------10-9-10-9-10-9-7-9---10-9-7-9------9-10---9--------|
D|-------------------------------------------------------10-------------10---| 
A|---------------------------------------------------------------------------|
E|---------------------------------------------------------------------------|

e|----------------------------------------------------------------------|
B|------------------8---------------------------------------------------|
G|--7--9--7--10--7-----10--9--10----9-10-9-7--9-------9-10---9----------|
D|------------------------------------------------10-------------10-----| 
A|----------------------------------------------------------------------|
E|----------------------------------------------------------------------|

e|---------------------------------------------------------------------------|
B|-------8-9-10-8----8-------------------------------------------------------|
G|--7-10----------10------10-9-10-9-10-9-7-9---10-9-7-9------9-10---9--------|
D|-------------------------------------------------------10-------------10---| 
A|---------------------------------------------------------------------------|
E|---------------------------------------------------------------------------|

post solo
e|----------------------1010101010101010--------|
B|-----9-9-9-9-9-9-9-9--9-9-9-9-9-9-9-9---------|
G|-----9-9-9-9-9-9-9-9--9-9-9-9-9-9-9-9---------|
D|-----9-9-9-9-9-9-9-9--9-9-9-9-9-9-9-9---------| 
A|----------------------------------------------|
E|----------------------------------------------|

e|--0--0--1--1--1--0--0----2--2--3--3--3--2--2--------------|
B|--1--1--1--1--1--0--0----3--3--3--3--3--3--3--------------|
G|--0--0--0--0--0--0--0----2--2--2--2--2--2--2--------------|
D|--2--2--2--2--2--2--2----0--0--0--0--0--0--0--------------| 
A|--3--3--3--3--3--3--3----0--0--0--0--0--0--0--------------|
E|----------------------------------------------------------|


intro 
verse
chorus

intro
verse
chorus

solo
post solo

intro
verse

synth solo (guitar)
e|----------------------------|
B|-----------9-10-9-----------|
G|---11-9-11--------11-9------|
D|----------------------------| x4
A|----------------------------|
E|----------------------------|

verse
synth solo
verse

synth solo (guitar)
e|----------------------------|
B|-----------9-10-9-----------|
G|---11-9-11--------11-9------|
D|----------------------------| x4
A|----------------------------|
E|----------------------------|

e|----------------------------|
B|--9--9--9--9--9--9--14--14--|
G|----------------------------|x4
D|----------------------------| 
A|----------------------------|
E|----------------------------|

outro
e|----------------------1010101010101010--------|
B|-----9-9-9-9-9-9-9-9--9-9-9-9-9-9-9-9---------|
G|-----9-9-9-9-9-9-9-9--9-9-9-9-9-9-9-9---------|
D|-----9-9-9-9-9-9-9-9--9-9-9-9-9-9-9-9---------| 
A|----------------------------------------------|
E|----------------------------------------------|

e|--0--0--1--1--1--0--0----2--2--3--3--3--2--2--------------|
B|--1--1--1--1--1--0--0----3--3--3--3--3--3--3--------------|
G|--0--0--0--0--0--0--0----2--2--2--2--2--2--2--------------|
D|--2--2--2--2--2--2--2----0--0--0--0--0--0--0--------------| 
A|--3--3--3--3--3--3--3----0--0--0--0--0--0--0--------------|
E|----------------------------------------------------------|











Добавлено: 08.08.2015
Вам также может быть интересно:
Другие материалы по этой песне:
  • Аккорды и текст

Страница создана 08.08.2015
http://primanota.ru/charlie-boyer-and-voyeurs/i-watch-you-chords.htm
Привет, Гость.
Предлагаем пройти революционный курс по гитаре.
Подарок от PrimaNota.Ru, забирай!