PrimaNota.ru - самый крупный в мире бесплатный архив песенных текстов, аккордов, табулатур и нот


Charlie Boyer And The Voyeurs - Be Glamorous - таба, видео

Регистрация Запомнить меня
Войти через:  Facebook Google Twitter Vk Yandex Mail.ru

Charlie Boyer And The Voyeurs - Be Glamorous - таба, видео

Печатать
Просмотров: 108
Charlie Boyer and The Voyeurs - Be Glamorous
tab by theFlavio

intro
e|------------------------------------------------|
B|--7--7--7-7-7-----------------------------------|
G|--7--7--7-7-7------2-x--2-2-2-------------------|
D|--7--7--7-7-7------3-x--3-3-3-------------------| 
A|--5--5--5-5-5------3-x--3-3-3-------------------|
E|-------------------1-x--1-1-1-------------------|

e|------------------------------------------------|
B|---------------------------------13-13--13-13---|
G|-2-///--11--11--11-11-11--/--14--14-14--14-14---|
D|-3-///--12--12--12-12-12--/--15--15-15--15-15---| 
A|-3-///--12--12--12-12-12--/--15--15-15--15-15---|
E|-1-///--10--10--10-10-10--/--13-----------------|

e|---------------------------------------------------|
B|---------------------------------------------------|
G|--9---9---9---9----4--4--4--4--4---9---9---9---9---|
D|--10--10--10--10---5--5--5--5--5---10--10--10--10--| 
A|--10--10--10--10---5--5--5--5--5---10--10--10--10--|
E|--8---8---8---8----3--3--3--3--3---8---8---8---8---|

e|---------------------------|
B|---------------------------|
G|----4-4-4-4-4-4-4-4-4-4----|
D|----7-7-7-7-7-7-7-7-7-7----| 
A|----7-7-7-7-7-7-7-7-7-7----|
E|----5-5-5-5-5-5-5-5-5-5----|


verse
e|------------------------------------------------|
B|--7--7--7-7-7--7-7-7--7-7-7---------------------|
G|--7--7--7-7-7--7-7-7--7-7-7---3-3-3---3-3-3-----|
D|--7--7--7-7-7--7-7-7--7-7-7---4-4-4---5-5-5-----| 
A|--5--5--5-5-5--5-5-5--5-5-5---4-4-4---5-5-5-----|
E|------------------------------2-2-2---3-3-3-----|

chorus
e|--------------------------------------------|
B|--7--7--7--7--------------------------------|
G|--7--7--7--7---2--2--2-2-2------------------|
D|--7--7--7--7---3--3--3-3-3------------------| x2
A|--5--5--5--5---3--3--3-3-3------------------|
E|---------------1--1--1-1-1------------------|

e|-------------------------------------------------|
B|-------------------------------------------------|
G|--9---9---9---9----4--4--4-4-4---9---9---9---9---|
D|--10--10--10--10---5--5--5-5-5---10--10--10--10--| 
A|--10--10--10--10---5--5--5-5-5---10--10--10--10--|
E|--8---8---8---8----3--3--3-3-3---8---8---8---8---|

e|---------------------------|
B|---------------------------|
G|----4-4-4-4-4-4-4-4-4-4----|
D|----7-7-7-7-7-7-7-7-7-7----| 
A|----7-7-7-7-7-7-7-7-7-7----|
E|----5-5-5-5-5-5-5-5-5-5----|


verse
chorus


bridge
guitar1:
e|--------------------------------|
B|--------------------------------|
G|--7-7-7-7-7-7----7-7-7-7-7-7----|
D|--7-7-7-7-7-7----7-7-7-7-7-7----| 
A|--5-5-5-5-5-5----5-5-5-5-5-5----|
E|--------------------------------|

guitar2:
e|--------------------------------|
B|--------------------------------|
G|--------5-------------5---------|
D|-----7-------------7------------| 
A|--5-------------5---------------|
E|--------------------------------|


verse3
e|------------------------------------------------8-8-8------|
B|---------------------------------------------7--7-7-7------|
G|---------------------------3-3-3--3-3-3----7---------------|
D|---------------------------4-4-4--5-5-5--------------------| 
A|--5--5--5--5--5--5--5--5---4-4-4--5-5-5--------------------|
E|---------------------------2-2-2--3-3-3--------------------|

e|-----------------------------------------------------------|
B|------------------------------------------7-7-7-7-7-7-7-7--|
G|---------------------------3-3-3--3-3-3---7-7-7-7-7-7-7-7--|
D|---------------------------4-4-4--5-5-5---7-7-7-7-7-7-7-7--| 
A|--5--5--5--5--5--5--5--5---4-4-4--5-5-5---5-5-5-5-5-5-5-5--|
E|---------------------------2-2-2--3-3-3--------------------|

chorus
chorus

outro
e|--------------------------------|
B|--------------------------------|
G|--7-7-7-7-7-7----7-7-7-7-7-7----|
D|--7-7-7-7-7-7----7-7-7-7-7-7----| 
A|--5-5-5-5-5-5----5-5-5-5-5-5----|
E|--------------------------------|

guitar2:
e|--------------------------------|
B|--------------------------------|
G|--------5-------------5---------|
D|-----7-------------7------------| 
A|--5-------------5---------------|
E|--------------------------------|
Добавлено: 08.08.2015
Вам также может быть интересно:
Другие материалы по этой песне:
  • Аккорды и текст

Страница создана 08.08.2015
http://primanota.ru/charlie-boyer-and-voyeurs/be-glamorous-chords.htm
Привет, Гость.
Предлагаем пройти революционный курс по гитаре.
Подарок от PrimaNota.Ru, забирай!