PrimaNota.ru - самый крупный в мире бесплатный архив песенных текстов, аккордов, табулатур и нот


Charlie Allen - Delusional - таба, видео

Регистрация Запомнить меня
Войти через:  Facebook Google Twitter Vk Yandex Mail.ru

Charlie Allen - Delusional - таба, видео

Печатать
Просмотров: 51
Уроки эстрадного вокала в Санкт-Петербурге
-------------------------------------------------------------------------------
                            Delusional - Charlie Allen
-------------------------------------------------------------------------------
Tabbed by: Katelyn Lopez
E-mail: spikal2901@gmail.com

I'm still finishing this and I'm not sure if its 100% correct so I'm sorry if it's wrong.  

Tuning:standard

  A                                                D           A
e|---------------------------------------------------2-x---2-----------------|
B|--2-x---2----2-x2-x-2-x----2-x--2------2-x---2-x-----------------2-x---2---|
G|---------------------------------------------------2-x---2-----------------|
D|--2-x---2----2-x2-x-2-x----2-x--2------2-x---2-x-0-----0---------2-x---2---|
A|0-----0----0-------------0----0------0---------------------0--0------0-----|
E|---------0------------------------0---------------------------------------0|
                          
  A                  D            E         F#m
e|---------------------2-x---2-------------------------------------------2---|
B|--2-x--2----2-x2-x-----------------0x0x0x----2-----2------2------2-----2---|
G|---------------------2-x---2-------1x1x1x---(2)---(2)--2-(2)----(2)----2---|
D|--2-x--2----2-x2-x-0-----0-------2---------4---4-----4-------4------4--4---|
A|0----0-----0------------------0------------------4-----4-------4-------4---|
E|---------0---------------------------------2-----2-----2-------2-------2---|

  A           F#m      E       D         F#m     E        A
e|0----------------------------2------2--------------------------------------|
B|2---2--2-----2--2----0-(0)---3------3--2--2----0-(0)------2---2-----2-2-2--|
G|2------------2----2--1--1----2--2---2--2----2--1--1------------------------|
D|2---2--2-----4-------2----2--0----0-0--4-------2----(2)---2---2-----2-2-2--|
A|0-0------0---4-------2-----------------4-------2--------0---0-----0--------|
E|0---------------------------------------------------------------0----------|

  A                D          A                          D          E
e|-------------------2---2---------------------------------2---2-------------|
B|--2---2-----2-2---------------2---2-----2---2-----2-2---------------0-0--0-|
G|-------------------2---2---------------------------------2---2------1-1--1-|
D|--2---2-----2-2--0---0--------2---2-----2---2-----2-2--0---0------2-----2--|
A|0---0-----0-------------(0)-0---0-----0---0-----0--------------0-----------|
E|--------0---------------------------0---------0----------------------------|

  F#m                         A          F#m   E      D       F#m   Em
e|--------------------------2-0-----------------------2-----2----------------|
B|--2-----2------2-----2----2-2----2-2---2-2---0-(0)--3-----3-2-2---0-(0)----|
G|-(2)---(2)--2-(2)---(2)---2-2----------2---2-1--1---2-2---2-2---2-1--1-----|
D|4---4-----4------4------4-4-2----2-2---4-----2----2-0---0-0-4-----2---(2)--|
A|------4-----4------4------4-0--0-----0-4-----2--------------4-----2--------|
E|2-----2-----2------2------2-0----------------------------------------------|

  A                 D E F#m
e|------------------2----------------------2-----------------------------2---|
B|2---2-----2-2---2-3-0-2---2---2---2----2-2---2------2------2------2----2---|
G|------------------2-1-2---2---2-2-2----2-2--(2)----(2)--2-(2)----(2)---2---|
D|2---2-----2-2---2-0-2-4-----4---4-4--4---4-2---4------4-------4------4-4---|
A|--0-----0-----0---0-2-4-4--(4)--4-4-(2)--4-------4------4-------4------4---|
E|------0-----------------2---2---2----2---2-2-----4------2-------2------2---|

  A         F#m   E      D     F#m   E A
e|0---------2-----0------2-----2-----0---------------------------------------|
B|2---2-2---2-2---0-(0)--3-----2-2---0---2---2-----2-2-----------------------|
G|2---------2-2-2-1--1---2-2---2---2-1---------------------------------------|
D|2---2-2---4---2-2--2-2-0-0-0-4-4---2---2---2-----2-2-----------------------|
A|0-0-----0-4-----2----2-x---0-4---4-2-0---0-----0---------------------------|
E|0---------2-----0------x-----2-----0---------0--------2--------------------|

************************************

| /   slide up
| \   slide down
| h   hammer-on
| p   pull-off
| ~   vibrato
| +   harmonic
| x   Mute note
| b   Bend
| pb  Pre-bend
| br  Bend release
| pbr Pre-bend release
| brb Bend release bend
| x   stop the strings from ringing or something

************************************
Добавлено: 31.12.2015
Другие материалы по этой песне:
  • Аккорды и текст

Страница создана 31.12.2015
http://primanota.ru/charlie-allen/delusional-chords.htm
Привет, Гость.
Предлагаем пройти революционный курс по гитаре.
Подарок от PrimaNota.Ru, забирай!