PrimaNota.ru - самый крупный в мире бесплатный архив песенных текстов, аккордов, табулатур и нот


Charles Redland - Kråkguldet - аккорды и текст, видео

Регистрация Запомнить меня
Войти через:  Facebook Google Twitter Vk Yandex Mail.ru

Charles Redland - Kråkguldet - аккорды и текст, видео

Печатать
Просмотров: 49
Уроки эстрадного вокала в Санкт-Петербурге
Kråkguldet
Charles Redland
-------------------------------------------------------------------------------
                             KråkGuldet - C.Redland
-------------------------------------------------------------------------------
Tabbed by: Ivy-Pandora

Tuning: Standard

Listen to the original song for timing: https://www.youtube.com/watch?v=Ytr0qVb91kM
This is a simple version of the song

  
   Guld är inte allt som glimmar | Sedan vintersolen sjunkit röd

e|---0--0--0--0--1-1-0--1------|--------------------0--0--1--0---------------|
B|-------------------------3---|--3--3--3--3--1--3---------------------------|
G|-----------------------------|0--------------------------------------------|
D|---------------0------0------|---------------------------------------------|
A|---0-----0-------------------|--------------------3------------------------|
E|-----------------------------|--------3--------------------0---------------|
    Am          Dm              G7               C        E7


   Det som bleks i ljusets timmar | Får mot nattens väg sin död

e|---0--0--5--3----1-1-0--1-------|---------1--0-----------------------------|
B|---------------------------3----|--0--0------------1--0--------------------|
G|--------------------------------|-------------------------2----------------|
D|-----------------0------0-------|--2---------------------------------------|
A|---0-----4----------------------|------------------0------0----------------|
E|--------------------------------|---------0-----------0--------------------|
    Am    A7      Dm                 E7             Am  E7  Am



Chord 2 (Same tab)

Ädelsten som snökristaller.
Silversmycken som är månljus blått.
Rikedom när stjärnor faller.
Det är mörkrets gåvolott.

Chord 3 (Same tab)

Guldglans överallt i natten.
Rovdjursögon bakom stock och sten.
Norrskens Lågor över frusna vatten
Bländverk, irrbloss, återsken.



Translation:

Gold is not all that glitters.
Since the winter sun fell red.                (Fell is actually sank but i prefer fell)
The things that fade in the hours of light.
May in the night pave his death.

Gemstone like snow crystals.
Silver jewelry that is merely moonlight.
Richness when stars are falling.
That is the darkness's fortune.

Gold Gloss all over the night.
Predator Eyes behind logs and stones.
The Northern lights flames over frozen water.
Delusion, fen fire, reflexion.


Hope you liked my tab, if there are any corrections just let me know!

This song is from the swedish tv-show from 1969 called "Kråkguldet" 

Добавлено: 29.12.2015
Другие материалы по этой песне:
  • Аккорды и текст

Страница создана 29.12.2015
http://primanota.ru/charles-redland/krakguldet-chords.htm
Привет, Гость.
Предлагаем пройти революционный курс по гитаре.
Подарок от PrimaNota.Ru, забирай!