PrimaNota.ru - самый крупный в мире бесплатный архив песенных текстов, аккордов, табулатур и нот


Charles H. Gabriel - I Stand Amazed In The Presence - таба, видео

Регистрация Запомнить меня
Войти через:  Facebook Google Twitter Vk Yandex Mail.ru

Charles H. Gabriel - I Stand Amazed In The Presence - таба, видео

Печатать
Просмотров: 117
Уроки эстрадного вокала в Санкт-Петербурге
-------------------------------------------------------------------------------
           I stand amazed in the presence - Charles H. Gabriel
-------------------------------------------------------------------------------
Tabbed by:
E-mail:
Key: Ab
Tuning:E-A-D-G-B-e
capo: 1
e|---------------------------------------------------------------------------|
B|-----------------------0---------------------------------------------------|
G|----------------0---2-----2--0--0-------------0-2-0 --------------0--------|
D|-0--0--------0---------0-----------4--4---4------------0---2--2------4-----|
A|-2--2----2---3--3---2-----2--2--2--5--5---5---2-3-2----2---3--3---2--5-----|
E|---------------------------------------------------------------------------|
   I stand amazed in the presence of Jesus the Nazarene and wonder how He 
e|---------------------------------------------------------------------------|
B|------------------0--0---0-------------------------------------------------|
G|----------0-0--2-------------2------0--------------------------------------|
D|---2----0------0--0--0---0---0------0--------------------------------------|
A|---3----2---2--------------------------------------------------------------|
E|---------------------------------------------------------------------------|
   could love me a sinner condemned unclean 
e|---------------------------------------------------------------------------|
B|-------0---0---------3--3--1-0-----------------0----1-0-----0---0----------|
G|--------------2-0------------------2--2---2-------------2-0-------2--0-----|
D|-------0---0--0-0----0--0--0-0-----0--0---0----0----0-0-0-0-0---0-0--0-----|
A|---------------------------------------------------------------------------|
E|---------------------------------------------------------------------------|
chorus: how marvelous how wonderful and my song shall ever be how marvelous
e|---------------------------------------------------------------------------|
B|--3---3--1--0-----0---1-0--------------------------------------------------|
G|---------------2----------2---0-------0------------------------------------|
D|--0---0--0--0--0--0---0-0-0---0----4--0------------------------------------|
A|-----------------------------------5---------------------------------------|
E|---------------------------------------------------------------------------|
   how wonderful is my Saviors love for me  

************************************

| /   slide up
| \   slide down
| h   hammer-on
| p   pull-off
| ~   vibrato
| +   harmonic
| x   Mute note
| b   Bend
| pb  Pre-bend
| br  Bend release
| pbr Pre-bend release
| brb Bend release bend

************************************
Добавлено: 15.12.2015
Вам также может быть интересно:
Другие материалы по этой песне:
  • Аккорды и текст

Страница создана 15.12.2015
http://primanota.ru/charles-h-gabriel/i-stand-amazed-in-presence-chords.htm
Привет, Гость.
Предлагаем пройти революционный курс по гитаре.
Подарок от PrimaNota.Ru, забирай!