PrimaNota.ru - самый крупный в мире бесплатный архив песенных текстов, аккордов, табулатур и нот


Charles Bronson - Theme Song - таба, видео

Регистрация Запомнить меня
Войти через:  Facebook Google Twitter Vk Yandex Mail.ru

Charles Bronson - Theme Song - таба, видео

Печатать
Просмотров: 127
Theme Song
Charles Bronson

Pt. 1
|---------------------------------|
|---------------------------------|
|---------------------------------|
|-------4-5-4-----------4-5-4-----|
|---4-7-------7-4---4-7-------7-4-|
|-5---------------5---------------|

|---------------------------------------|
|---------------------------------------|
|-77777777----------9999-7777------9999-|
|-77777777-77777777-9999-7777-7777-9999-|
|-55555555-77777777-7777-5555-7777-7777-|
|----------55555555-----------5555------|

Pt. 2.1

|----------------------------------|
|----------------------------------|
|-----------------------7777-5-6-7-|
|-7777-5-6-7-7777-5-6-7-7777-5-6-7-|
|-7777-5-6-7-7777-5-6-7-5555-3-4-5-|
|-5555-3-4-5-5555-3-4-5------------|

|--------------------------------|
|--------------------------------|
|------------9999-7777-----------|
|-7777-5-6-7-9999-7777-7777-7777-|
|-7777-5-6-7-7777-5555-7777-7777-|
|-5555-3-4-5-----------5555-5555-|

Pt. 2.2

|----------------------------------|
|----------------------------------|
|-----------------------7777-5-6-7-|
|-7777-5-6-7-7777-5-6-7-7777-5-6-7-|
|-7777-5-6-7-7777-5-6-7-5555-3-4-5-|
|-5555-3-4-5-5555-3-4-5------------|

|--------------------------------|
|--------------------------------|
|------------9999-7777------9999-|
|-7777-5-6-7-9999-7777-7777-9999-|
|-7777-5-6-7-7777-5555-7777-7777-|
|-5555-3-4-5-----------5555------|

Song Order

Pt 1    x 1
Pt 2.1  x 1
Pt 2.2  x 1
Pt 1    x 1
Pt 2.2  x 1

this is the version on their second release, I think.
or the version on their demo.
I'm not sure.
Funny song, either way
Добавлено: 14.06.2012
Другие материалы по этой песне:

Страница создана 07.06.2012
http://primanota.ru/charles-bronson/theme-song-chords.htm
Привет, Гость.
Предлагаем пройти революционный курс по гитаре.
Подарок от PrimaNota.Ru, забирай!