PrimaNota.ru - самый крупный в мире бесплатный архив песенных текстов, аккордов, табулатур и нот


Charlene Soraia - Bike - таба, видео

Регистрация Запомнить меня
Войти через:  Facebook Google Twitter Vk Yandex Mail.ru

Charlene Soraia - Bike - таба, видео

Печатать
Просмотров: 99
I structured this tab as 
well as I could, there's
just so much to cover, twas 
hard to simplify it.


Standard Tuning



Intro

-------12----------------|
-------12--10-----9h10p9-|
-------11--9-------------|
-------11--11--11--------|
-----------9------9------|
-2/-10---x---------------|
         *Thumb slap (kinda)

-----------------------|
-----12--10-----9h10p9-|
-----11--9-------------|
-----11--11--11--------| x2
---------9------9------|
--10---x---------------|

------------------|
-----12-12---10\--|
-----11-11---9-\--|
-----11-11---11\--| 
-----------9------|
--10--------------|



Verse

----12----------------|
----12--10-----9h10p9-|
----11--9-------------| x alot
----11--11--11--------|
--------9------9------|
-10---x---------------|

--------------|
-----12--10\--|
-----11---9\--|
-----11--11\--| 
----------9\--|
--10---x------|

Right before the chorus
There's this slide

----|
----|
----|
----|
-2/-|
----|



Chorus

---------------------|
----14-----14--------|
----13----13---------|
----14---14----------|
-12-----12--------12-|
------x-------12-----|

-------------------|
---10------10------|
---11-----9--------|
---11---11---------|
-9-----9---------9-|
-----x--------9----|



Fill

-------------|
-10-10-10-10-|
--9--9--9--9-|
-11-11-11-11-|
--9--9--9--9-|
-------------|


Back to Verse, then
a variation:

----12-----------------|
----12--12-------------|
----11--11-------------|
----11--12-------------|
---------9-------------|
-10---x--------9-------|


Back to chorus

Then verse again

The second verse also 
has a variation:

----12-12----------------|
----12-12---10----9h10p9-|
----11-11----9-----------|
----11-11---11-11--------|
----------9-------9------|
-10----------------------|



Bridge

-----------------------------------|
-----------------------------------|
-----------------7/9--9--7---------|
----9-7----7--9--9/11-11-9^~-7-----|
---------9---------------------9~--|
-7---------------------------------|


--------------------------------------|
-------------------------7h6-7--------|
-----------------7/9--7--7h9-7-7/9--7-|
----9-7----7--9--9/11-9--------9/11-9-|
---------9----------------------------|
-7------------------------------------|


---------------------------------------|
------------------------7-7h6-7--------|
-------------7/9--9--7--7-7h9-7-7/9--7-|
----9-7---7--9/11-11-9^---------9/11-9-|
--------9------------------------------|
---7-----------------------------------|

------------------------------------------|
------------------------------------------|
------------------------------------------|
-7--7--7----------------9---9---9---11-11-|
-9--9--9-7h8h9----------------------------|
---------------7--7---7---7---7---9-----9-|



----12--------------|
----12--10----------|
----11--9-----------|
----11--11--11------|
--------9------0----|
-10---x-------------|

----12--------------|
----12--12----------|
----11--11--11------|
----11--12----------|
---------9-----0----|
-10---x-------------|

----12------10\9-9\8-8\7-7\6-6\5-|
----12--10---9\8-8\7-7\6-6\5-5\4-|
----11--9---10\9-9\8-8\7-7\6-6\5-|
----11--11---9\8-8\7-7\6-6\5-5\4-|
--------9------------------------|
-10---x--------------------------|



--------------------| 
-----10-----14--14^-|
----9-------13--13--|  
--11--------14--14--|
-9----------12--12--|
--------------------|


-----------------------| 
-----10----14--14--14\-|
----9------13--13--13\-|  
--11-------14--14--14\-|
-9---------12--12--12\-|
-----------------------|



Last Chorus

--------------------|
---10------10-------|
----9-----9---------|
---11---11----------|
-9-----9----------9-|
-----x---------9----|

---------------------|
----14-----14--------|
----13----13---------|
----14---14----------|
-12-----12--------12-|
------x-------12-----|



Outro

--------------------------------------------|
--------------------------------------------|
-------16-14~~-------16-14~~------16-14h16^-|
------16------------16-----------16---------|
-----16------------16-----------16----------|
-14------------14-----------14--------------|
Добавлено: 03.08.2013
Вам также может быть интересно:
Другие материалы по этой песне:
  • Аккорды и текст

Страница создана 03.08.2013
http://primanota.ru/charlene-soraia/bike-chords.htm
Привет, Гость.
Предлагаем пройти революционный курс по гитаре.
Подарок от PrimaNota.Ru, забирай!