PrimaNota.ru - самый крупный в мире бесплатный архив песенных текстов, аккордов, табулатур и нот


Charlatans - Spronston Green - таба, бас-таба, видео

Регистрация Запомнить меня
Войти через:  Facebook Google Twitter Vk Yandex Mail.ru

Charlatans - Spronston Green - таба, бас-таба, видео

Печатать
Просмотров: 182
Уроки эстрадного вокала в Санкт-Петербурге
Feb. 6, 1995
If you don't have an organ, try using the simulated organ cords on one
guitar while another guitar plays the regular guitar parts.

                             Spronston Green
                           -------------------
                            by The Charlatans
                     (from the album "Some Friendly")


Organ cords (simulated on guitar by plucking all notes simultaneously
             with indicated fingers)
         E maj                    A maj
Middle |---0---                 |-------|
 Index |---0---          Middle |---2---|
       |-------           Index |---2---|
 Thumb |---2---           Thumb |---2---|
       |-------                 |-------|
       |-------                 |-------|

opening riff
||-7---7---7-7-5---3---5-7-----------------3-----3-5---||
||---------------------------5---5---3---5---5---------||
||----------------------------------------------------*||
||----------------------------------------------------*||
||-----------------------------------------------------||
||-----------------------------------------------------||

   E {This is the E used throughout body of song}
||--0----------------------------------------------------||
||--0----------------------------------------------------||
||*-1---------------------------------------------------*||
||*-2---------------------------------------------------*||
||--2----------------------------------------------------||
||--0----------------------------------------------------||


Break {use palm muting where necessary}
    E maj                              A maj
||--4-------------4-----4---------------------------||
||--5----5--5--5--5--5--5--5--5--5--5--2-----2------||
||*-4----4--4--4--4--4--4--4--4--4--4--2-----2-----*||
||*-2----2--2--2--2--2--2--2--2--2--2--2-----2-----*||
||-------------------------------0--0--0-----0------||
||--------------------------------------------------||

{organ plays all cords
{guitar only plays cords that are not bracketed

+++ Spronston Green +++

E                   (A)        E    (A)  E                (A)    E    (A)
 This one knows, she comes and goes.      And when she goes, she goes.
E                   (A)        E    (A)  E                (A)    E    (A)
 This one knows, she comes and goes.      And when she goes, she goes.
E                   (A)       E     (A)  E                  (A)      E   (A)
 Spronston green she used to pace me,     but now she hasn't got the time.
E             (A)    E  (A)  E              (A)        E    (A)
 I know I'm to necessary.     Everything she stole was mine . . .

E                   G                 A
 You got outa this one.  I've got no one.
                 E
 She knows she's buying something bought.
Добавлено: 06.05.2012
Другие материалы по этой песне:
  • Аккорды и текст

Страница создана 29.03.2012
http://primanota.ru/charlatans/spronston-green-chords.htm
Привет, Гость.
Предлагаем пройти революционный курс по гитаре.
Подарок от PrimaNota.Ru, забирай!