PrimaNota.ru - самый крупный в мире бесплатный архив песенных текстов, аккордов, табулатур и нот


Charlatans - Mis-takes - таба, видео

Регистрация Запомнить меня
Войти через:  Facebook Google Twitter Vk Yandex Mail.ru

Charlatans - Mis-takes - таба, видео

Печатать
Просмотров: 112
Intro

      Am              G           C               D
e|-3/5-5-5-5-5--5-5-5/3-3-3-3--7/8-8-8-8-8--8-8-8/10-10-10-10--|
B|-------------------------------------------------------------|
G|-------------------------------------------------------------|  x2
D|-------------------------------------------------------------|
A|-------------------------------------------------------------|
E|-------------------------------------------------------------|

Interlude

  Am   G
e|------|
B|------|
G|------|
D|-5-7--| x4
A|-5-7--|
E|-3-5--|


Am       G
I don't like You
         C
But I know that
          D
You don't like me

Am          G
It's kinda funny
          C
'cause I know You
    D
can read me
but You need me

Am        G
when I open doors
          C
of course your thorns
       D
become roses

Am                G
My life is sure short
         A
and your actions
         D
are all poses


CHOROUS
Am                        G
Tell me there won't be no more last days
C                              D
I don't even know what They're doing backstage
G                        G
You know I could really need some fun
C                                  D
I can feel the cold steel from the barrel of your gun

  Am   G
e|------|
B|------|
G|------|
D|-5-7--| x4
A|-5-7--|
E|-3-5--|

Am      G
I don't like You
      C
and I know that
          D
You don't like me
Am            G
I don't wanna touch You
      C
but I felt You
       D
It was creepy

  Am   G
e|-55555555-33333333-8888888-1010101010101010--|
B|-55555555-33333333-8888888-1010101010101010--|
G|-55555555-44444444-9999999-1111111111111111--|
D|---------------------------------------------| x2
A|---------------------------------------------|
E|---------------------------------------------|

Am         G
You know I don't care
         C
That You kissed me
        D
at the bus stop
(It felt good)
Am           G
To feel your power
       C
for a moment
      D
kinda sordid

CHOROUS

  Am   G
e|------|
B|------|
G|------|
D|-5-7--| x4
A|-5-7--|
E|-3-5--|

SOLO

 Am G C D
e|----------------------------------7-8-10-----------------------------|
B|-8-10-10--10-12-10-8----8-10-10-8------------------------------------|
G|---------------------------------------------------------------------|
D|---------------------------------------------------------------------| x4
A|---------------------------------------------------------------------|
E|---------------------------------------------------------------------|

  Am   G
e|-10/12-12-12-12-12-12-12-12-8-10---------|
B|---------------------------------10------|
G|-----------------------------------------|
D|-----------------------------------------| x2
A|-----------------------------------------|
E|-----------------------------------------|

CHOROUS (OUTRO)

  Am   G
e|-8-8-8-8-8-8-8-8--77777777-88888888-10101010101010--|
B|-1010101010101010-88888888-88888888-10101010101010--|
G|----------------------------------------------------|
D|----------------------------------------------------| x2
A|----------------------------------------------------|
E|----------------------------------------------------|
Добавлено: 18.09.2013
Другие материалы по этой песне:
  • Аккорды и текст

Страница создана 18.09.2013
http://primanota.ru/charlatans/mis-takes-chords.htm
Привет, Гость.
Предлагаем пройти революционный курс по гитаре.
Подарок от PrimaNota.Ru, забирай!