PrimaNota.ru - самый крупный в мире бесплатный архив песенных текстов, аккордов, табулатур и нот


Charlatans - Architect - таба, видео

Регистрация Запомнить меня
Войти через:  Facebook Google Twitter Vk Yandex Mail.ru

Charlatans - Architect - таба, видео

Печатать
Просмотров: 119
----------------------------------------------------------------------------
                      The Architect - The Charlatans
----------------------------------------------------------------------------
tabbed by: acoustic-fish
tuning: EADGBe (standard)

intro:
guitar
 e|----5-5----5------5-5----5--------------------6-6----6--|
 B|----6-6----6------6-6----6------8-8----8------6-6----6--|
 G|----7-7----7------7-7----7------9-9----9------7-7----7--|
 D|----7-7----7------7-7----7------1010---10-----8-8----8--|
 A|----5-5----5------5-5----5------1010---10-----8-8----8--|
 E|--------------------------------8-8----8------6-6----6--|
bass
 G|-------5/7-7-7------------------------------------------|
 D|---------------7--7-------------------------------------|
 A|--5---5---------------8--5---------7/8\7----------------|
 E|-----------------------------8----8-------6--6--6-8--6--|


guitar
 e|----5-5----5------5-5----5--------------------6-6----6--|
 B|----6-6----6------6-6----6------8-8----8------6-6----6--|
 G|----7-7----7------7-7----7------9-9----9------7-7----7--|
 D|----7-7----7------7-7----7------1010---10-----8-8----8--|
 A|----5-5----5------5-5----5------1010---10-----8-8----8--|
 E|--------------------------------8-8----8------6-6----6--|
bass
 G|-------5/7-7-7------------------------------------------|
 D|---------------7--7-------------------------------------|
 A|--5---5---------------8--5---------7/8\7----------------|
 E|-----------------------------8----8-------6--6--6-8--6--|


guitar
 e|----5-5----5------5-5----5--------------------6-6----6--|
 B|----6-6----6------6-6----6------8-8----8------6-6----6--|
 G|----7-7----7------7-7----7------9-9----9------7-7----7--|
 D|----7-7----7------7-7----7------1010---10-----8-8----8--|
 A|----5-5----5------5-5----5------1010---10-----8-8----8--|
 E|--------------------------------8-8----8------6-6----6--|
bass
 G|-------5/7-7-7------------------------------------------|
 D|---------------7--7-------------------------------------|
 A|--5---5---------------8--5---------7/8\7----------------|
 E|-----------------------------8----8-------6--6--6-8--6--|


guitar
 e|----5-5----5------5-5----5----------------6-------------|
 B|----6-6----6------6-6----6---8------------6-------------|
 G|----7-7----7------7-7----7---9------------7-------------|
 D|----7-7----7------7-7----7---10-----------8-------------|
 A|----5-5----5------5-5----5---10-----------8-------------|
 E|-----------------------------8------------6-------------|
bass
 G|-------5/7-7-7------------------------------------------|
 D|---------------7--7-------------------------------------|
 A|--5---5---------------8--5------------------------------|
 E|-----------------------------8------------6-------------|



verse 1:
guitar
 e|--------------------------------------------------------|
 B|--------------------------------------------------------|
 G|--7-----------------------------------------------------|
 D|-----------------------------10-----------8-------------|
 A|--5-----------------------------------------------------|
 E|-----------------------------8------------6-------------|
bass
 G|-------5/7-7-7------------------------------------------|
 D|---------------7--7-------------------------------------|
 A|--5---5---------------8--5---------7/8\7----------------|
 E|-----------------------------8----8-------6--6--6-8--6--|
          rockers...  ...world re-unite 

guitar
 e|--------------------------------------------------------|
 B|--------------------------------------------------------|
 G|--7-----------------------------------------------------|
 D|-----------------------------10-----------8-------------|
 A|--5-----------------------------------------------------|
 E|-----------------------------8------------6-------------|
bass
 G|-------5/7-7-7------------------------------------------|
 D|---------------7--7-------------------------------------|
 A|--5---5---------------8--5---------7/8\7----------------|
 E|-----------------------------8----8-------6--6--6-8--6--|
       in love...     ...comes...         ...talk

guitar
 e|--------------------------------------------------------|
 B|--------------------------------------------------------|
 G|--7-----------------------------------------------------|
 D|-----------------------------10-----------8-------------|
 A|--5-----------------------------------------------------|
 E|-----------------------------8------------6-------------|
bass
 G|-------5/7-7-7------------------------------------------|
 D|---------------7--7-------------------------------------|
 A|--5---5---------------8--5---------7/8\7----------------|
 E|-----------------------------8----8-------6--6--6-8--6--|
          Lay...    ...are......shelf...  ...warped when

guitar
 e|--------------------------------------------------------|
 B|--------------------------------------------------------|
 G|--7-----------------------------------------------------|
 D|-----------------------------10-----------8-------------|
 A|--5-----------------------------------------------------|
 E|-----------------------------8------------6-------------|
bass
 G|-------5/7-7-7------------------------------------------|
 D|---------------7--7-------------------------------------|
 A|--5---5---------------8--5------------------------------|
 E|-----------------------------8------------6-------------|
  we stop


chorus 1:
guitar
 e|---------------------------------------------------------|
 B|-----8------8------8------8------10-----10----10-----10--|
 G|-----7------7------7------7------9------9-----9------9---|
 D|-----5------5------5------5------7------7-----7------7---|
 A|---------------------------------------------------------|
 E|---------------------------------------------------------|
bass
 G|---------------------------------------------------------|
 D|---------------------------------------------------------|
 A|---------------------------------------------------------|
 E|--3--3--3------1-3-1-3--1-3---5--5--5------3-5-3-5--3-5--|
i never said...   ...the one...  ...so but...       ...bunch of


 e|-----5------5--------------------6------6------6------6--|
 B|-----6------6------8------8------6------6------6------6--|
 G|-----7------7------9------9------7------7------7------7--|
 D|-----7------7------10-----10-----8------8------8------8--|
 A|-----5------5------10-----10-----8------8------8------8--|
 E|-------------------8------8------6------6------6------6--|
bass
 G|---------------------------------------------------------|
 D|---------------------------------------------------------|
 A|--5--5--5------------------------------------------------|
 E|----------------8--8--8-------6--6--6-------5--5--5------|
    parasites...  ...my girl......alright     let me go


guitar
 e|---------------------------------------------------------|
 B|-----8------8------8------8------10-----10----10-----10--|
 G|-----7------7------7------7------9------9-----9------9---|
 D|-----5------5------5------5------7------7-----7------7---|
 A|---------------------------------------------------------|
 E|---------------------------------------------------------|
bass
 G|---------------------------------------------------------|
 D|---------------------------------------------------------|
 A|---------------------------------------------------------|
 E|--3--3--3------1-3-1-3--1-3---5--5--5------3-5-3-5--3-5--|
               on a......bustley nights with...      ...used to


guitar
 e|-------------------------------------------6-------------|
 B|--------6------------------------------------------------|
 G|-----7------7----------9--------------7------------------|
 D|-------------------10-----10-----8-----------------------|
 A|--5------------------------------------------------------|
 E|----------------8-------------6--------------------------|
bass
 G|---------------------------------------------------------|
 D|---------------------------------------------------------|
 A|--5--5--5------------------------------------------------|
 E|----------------8--8--8-------6--6--6-------5------------|
     like...   ...tears   in our eyes



verse 2:
guitar
 e|----5-5----5------5-5----5--------------------6-6----6--|
 B|----6-6----6------6-6----6------8-8----8------6-6----6--|
 G|----7-7----7------7-7----7------9-9----9------7-7----7--|
 D|----7-7----7------7-7----7------1010---10-----8-8----8--|
 A|----5-5----5------5-5----5------1010---10-----8-8----8--|
 E|--------------------------------8-8----8------6-6----6--|
bass
 G|-------5/7-7-7------------------------------------------|
 D|---------------7--7-------------------------------------|
 A|--5---5---------------8--5---------7/8\7----------------|
 E|-----------------------------8----8-------6--6--6-8--6--|


guitar
 e|----5-5----5------5-5----5--------------------6-6----6--|
 B|----6-6----6------6-6----6------8-8----8------6-6----6--|
 G|----7-7----7------7-7----7------9-9----9------7-7----7--|
 D|----7-7----7------7-7----7------1010---10-----8-8----8--|
 A|----5-5----5------5-5----5------1010---10-----8-8----8--|
 E|--------------------------------8-8----8------6-6----6--|
bass
 G|-------5/7-7-7------------------------------------------|
 D|---------------7--7-------------------------------------|
 A|--5---5---------------8--5---------7/8\7----------------|
 E|-----------------------------8----8-------6--6--6-8--6--|


guitar
 e|--------5------5------5---------------------------------|
 B|------------6------6------6---------8-----------6-------|
 G|------7---7------7------7---------------9------------7--|
 D|----7----------------------------10---10------8---8-----|
 A|--5----------------------------10-----------8-----------|
 E|-----------------------------8------------6-------------|
bass
 G|-------5/7-7-7------------------------------------------|
 D|---------------7--7-------------------------------------|
 A|--5---5---------------8--5---------7/8\7----------------|
 E|-----------------------------8----8-------6--6--6-8--6--|
       make... ...own...     ...van


guitar
 e|--------5------5------5---------------------------------|
 B|------------6------6------6---------8-----------6-------|
 G|------7---7------7------7---------------9------------7--|
 D|----7----------------------------10---10------8---8-----|
 A|--5----------------------------10-----------8-----------|
 E|-----------------------------8------------6-------------|
bass
 G|-------5/7-7-7------------------------------------------|
 D|---------------7--7-------------------------------------|
 A|--5---5---------------8--5---------7/8\7----------------|
 E|-----------------------------8----8-------6--6--6-8--6--|
      i'm giving you all that i can    and i am

guitar
 e|----5-5----5------5-5----5--------------------6-6----6--|
 B|----6-6----6------6-6----6------8-8----8------6-6----6--|
 G|----7-7----7------7-7----7------9-9----9------7-7----7--|
 D|----7-7----7------7-7----7------1010---10-----8-8----8--|
 A|----5-5----5------5-5----5------1010---10-----8-8----8--|
 E|--------------------------------8-8----8------6-6----6--|
bass
 G|-------5/7-7-7------------------------------------------|
 D|---------------7--7-------------------------------------|
 A|--5---5---------------8--5---------7/8\7----------------|
 E|-----------------------------8----8-------6--6--6-8--6--|
          buckle my...       ...sleeves......shirt...

guitar
 e|----5-5----5------5-5----5----------------6-------------|
 B|----6-6----6------6-6----6---8------------6-------------|
 G|----7-7----7------7-7----7---9------------7-------------|
 D|----7-7----7------7-7----7---10-----------8-------------|
 A|----5-5----5------5-5----5---10-----------8-------------|
 E|-----------------------------8------------6-------------|
bass
 G|-------5/7-7-7------------------------------------------|
 D|---------------7--7-------------------------------------|
 A|--5---5---------------8--5------------------------------|
 E|-----------------------------8------------6-------------|
  ...flirt


chorus 2:
guitar
 e|---------------------------------------------------------|
 B|-----8------8------8------8------10-----10----10-----10--|
 G|-----7------7------7------7------9------9-----9------9---|
 D|-----5------5------5------5------7------7-----7------7---|
 A|---------------------------------------------------------|
 E|---------------------------------------------------------|
bass
 G|---------------------------------------------------------|
 D|---------------------------------------------------------|
 A|---------------------------------------------------------|
 E|--3--3--3------1-3-1-3--1-3---5--5--5------3-5-3-5--3-5--|
i never said...   ...the one...  ...so but...       ...bunch of


 e|-----5------5--------------------6------6------6------6--|
 B|-----6------6------8------8------6------6------6------6--|
 G|-----7------7------9------9------7------7------7------7--|
 D|-----7------7------10-----10-----8------8------8------8--|
 A|-----5------5------10-----10-----8------8------8------8--|
 E|-------------------8------8------6------6------6------6--|
bass
 G|---------------------------------------------------------|
 D|---------------------------------------------------------|
 A|--5--5--5------------------------------------------------|
 E|----------------8--8--8-------6--6--6-------5--5--5------|
    parasites...  ...my girl......alright     let me go


guitar
 e|---------------------------------------------------------|
 B|-----8------8------8------8------10-----10----10-----10--|
 G|-----7------7------7------7------9------9-----9------9---|
 D|-----5------5------5------5------7------7-----7------7---|
 A|---------------------------------------------------------|
 E|---------------------------------------------------------|
bass
 G|---------------------------------------------------------|
 D|---------------------------------------------------------|
 A|---------------------------------------------------------|
 E|--3--3--3------1-3-1-3--1-3---5--5--5------3-5-3-5--3-5--|
               on a......bustley nights with...      ...used to


guitar
 e|-------------------------------------------6-------------|
 B|--------6------------------------------------------------|
 G|-----7------7----------9--------------7------------------|
 D|-------------------10-----10-----8-----------------------|
 A|--5------------------------------------------------------|
 E|----------------8-------------6--------------------------|
bass
 G|---------------------------------------------------------|
 D|---------------------------------------------------------|
 A|--5--5--5------------------------------------------------|
 E|----------------8--8--8-------6--6--6-------5------------|
     like...   ...tears   in our eyes



solo: (guitar and bass play the same as the intro)
piano: (tabbed for guitar)
 e|--------------------------------------------------------|
 B|--------------8-10-10--------------11-10-9-10-9---------|
 G|-------7-9-10-----------------------------------7-------|
 D|--------------------------------------------------------|
 A|--------------------------------------------------------|
 E|--------------------------------------------------------|

piano:
 e|----------------------------------------------10-10-----|
 B|--------------8-10-10--------------11-10-9-10-----------|
 G|-------7-9-10-------------------------------------------|
 D|--------------------------------------------------------|
 A|--------------------------------------------------------|
 E|--------------------------------------------------------|

piano:
 e|--------------------------------------------------------|
 B|--------------8-10-10--------------11-10-9-10-9---------|
 G|-------7-9-10-----------------------------------7-------|
 D|--------------------------------------------------------|
 A|--------------------------------------------------------|
 E|--------------------------------------------------------|

piano:
 e|--------------------------------------------------------|
 B|--------------8-10-10--------------8----------11--------|
 G|-------7-9-10-------------------------------------------|
 D|--------------------------------------------------------|
 A|--------------------------------------------------------|
 E|--------------------------------------------------------|



chorus 2:
guitar
 e|---------------------------------------------------------|
 B|-----8------8------8------8------10-----10----10-----10--|
 G|-----7------7------7------7------9------9-----9------9---|
 D|-----5------5------5------5------7------7-----7------7---|
 A|---------------------------------------------------------|
 E|---------------------------------------------------------|
bass
 G|---------------------------------------------------------|
 D|---------------------------------------------------------|
 A|---------------------------------------------------------|
 E|--3--3--3------1-3-1-3--1-3---5--5--5------3-5-3-5--3-5--|
i never said...   ...the one...  ...so but...       ...bunch of


 e|-----5------5--------------------6------6------6------6--|
 B|-----6------6------8------8------6------6------6------6--|
 G|-----7------7------9------9------7------7------7------7--|
 D|-----7------7------10-----10-----8------8------8------8--|
 A|-----5------5------10-----10-----8------8------8------8--|
 E|-------------------8------8------6------6------6------6--|
bass
 G|---------------------------------------------------------|
 D|---------------------------------------------------------|
 A|--5--5--5------------------------------------------------|
 E|----------------8--8--8-------6--6--6-------5--5--5------|
    parasites...  ...my girl......alright     let me go


guitar
 e|---------------------------------------------------------|
 B|-----8------8------8------8------10-----10----10-----10--|
 G|-----7------7------7------7------9------9-----9------9---|
 D|-----5------5------5------5------7------7-----7------7---|
 A|---------------------------------------------------------|
 E|---------------------------------------------------------|
bass
 G|---------------------------------------------------------|
 D|---------------------------------------------------------|
 A|---------------------------------------------------------|
 E|--3--3--3------1-3-1-3--1-3---5--5--5------3-5-3-5--3-5--|
               on a......bustley nights with...      ...never


guitar
 e|-------------------------------------------6-------------|
 B|--------6------------------------------------------------|
 G|-----7------7----------9--------------7------------------|
 D|-------------------10-----10-----8-----------------------|
 A|--5------------------------------------------------------|
 E|----------------8-------------6--------------------------|
bass
 G|---------------------------------------------------------|
 D|---------------------------------------------------------|
 A|--5--5--5------------------------------------------------|
 E|----------------8--8--8-------6--6--6-------5------------|
    liked...   ...tears   in our eyes


outro:
guitar
 e|---------------------------------------------------------|
 B|-----8------8------8------8------10-----10----10-----10--|
 G|-----7------7------7------7------9------9-----9------9---|
 D|-----5------5------5------5------7------7-----7------7---|
 A|---------------------------------------------------------|
 E|---------------------------------------------------------|
bass
 G|---------------------------------------------------------|
 D|---------------------------------------------------------|
 A|---------------------------------------------------------|
 E|--3--3--3------1-3-1-3--1-3---5--5--5------3-5-3-5--3-5--|
Last...       ...architect saved my life oh...        ...wouldn't

 e|-------------------------------------------6-------------|
 B|--------6----------------------------------------------6-|
 G|-----7------7----------9--------------7-------------7----|
 D|-------------------10-----10-----8---------------8-------|
 A|--5------------------------------------------------------|
 E|----------------8-------------6----------------6---------|
bass
 G|---------------------------------------------------------|
 D|---------------------------------------------------------|
 A|--5--5--5------------------------------------------------|
 E|----------------8--8--8-------6--6--6-------5--5--5------|
  die tonight...   ...my heart...              ...thank you all


guitar
 e|---------------------------------------------------------|
 B|-----8------8------8------8------10-----10----10-----10--|
 G|-----7------7------7------7------9------9-----9------9---|
 D|-----5------5------5------5------7------7-----7------7---|
 A|---------------------------------------------------------|
 E|---------------------------------------------------------|
bass
 G|---------------------------------------------------------|
 D|---------------------------------------------------------|
 A|---------------------------------------------------------|
 E|--3--3--3------1-3-1-3--1-3---5--5--5------3-5-3-5--3-5--|
             i thank...   ...very much...     ...really wanted to be 


guitar
 e|-------------------------------------------6-------------|
 B|--------6----------------------------------------------6-|
 G|-----7------7----------9--------------7-------------7----|
 D|-------------------10-----10-----8---------------8-------|
 A|--5------------------------------------------------------|
 E|----------------8-------------6----------------6---------|
bass
 G|---------------------------------------------------------|
 D|---------------------------------------------------------|
 A|--5--5--5------------------------------------------------|
 E|----------------8--8--8-------6--6--6-------5------------|
     touched... ...touched... ...touched



guitar                                                         \
 e|---------------------------------------------------------|  |
 B|-----8------8------8------8------10-----10----10-----10--|  |
 G|-----7------7------7------7------9------9-----9------9---|  |
 D|-----5------5------5------5------7------7-----7------7---|  |
 A|---------------------------------------------------------|  |
 E|---------------------------------------------------------|  |
bass                                                           |
 G|---------------------------------------------------------|  |
 D|---------------------------------------------------------|  |
 A|---------------------------------------------------------|  |
 E|--3--3--3------1-3-1-3--1-3---5--5--5------3-5-3-5--3-5--|  |
                                                               |____ repeat and
                                                               |     fade out
guitar                                                         |
 e|-------------------------------------------6-------------|  |
 B|--------6----------------------------------------------6-|  |
 G|-----7------7----------9--------------7-------------7----|  |
 D|-------------------10-----10-----8---------------8-------|  |
 A|--5------------------------------------------------------|  |
 E|----------------8-------------6----------------6---------|  |
bass                                                           |
 G|---------------------------------------------------------|  |
 D|---------------------------------------------------------|  |
 A|--5--5--5------------------------------------------------|  |
 E|----------------8--8--8-------6--6--6-------5------------|  |
                                                               /



enjoy!


============================================================================
lyrics:

rockers all over the world re-unite 
in love with the feeling that comes with the night as we talk
lay off the pills that are left on the shelf
we'll be warped when we stop

i never said i want to be the one who said i told you so
but were all just a lowly bunch of parasites
and i told my girl it would be alright, let me go
on a hilltop in the bustley nights
with a legendary lord i used to like
and there will be tears in our eyes

make love in our own little van
i'm giving you all that i can and i am
buckle my belt and i roll up the sleeves
of my shirt and i flirt

i never said i want to be the one who said i told you so
but were all just a lowly bunch of parasites
and i told my girl it would be alright, let me go
on a hilltop in the bustley nights
with a legendary lord i used to like
and there will be tears in our eyes

i never said i want to be the one who said i told you so
but were all just a lowly bunch of parasites
and i told my girl it would be alright, let me go
on a hilltop in the bustley nights
with a legendary lord i never liked
and there will be tears in our eyes

last night you know an architect saved my life
oh i knew in my heart i wouldn't die tonight
i knew in my heart i wouldn't die tonight
thank you all, i thank you all so very much
you know i never really wanted to be touched
oh to be touched, oh to be touched

============================================================================
| /  slide up
| \  slide down
| h  hammer-on
| p  pull-off
| ^  bend
| ~  vibrato
| +  harmonic
| x  mute note
| ¬  palm mute
============================================================================
Добавлено: 01.04.2012
Другие материалы по этой песне:
  • Аккорды и текст

Страница создана 01.04.2012
http://primanota.ru/charlatans/architect-chords.htm
Привет, Гость.
Предлагаем пройти революционный курс по гитаре.
Подарок от PrimaNota.Ru, забирай!