PrimaNota.ru - самый крупный в мире бесплатный архив песенных текстов, аккордов, табулатур и нот


Charis - A Light To Bring Change - таба, видео

Регистрация Запомнить меня
Войти через:  Facebook Google Twitter Vk Yandex Mail.ru

Charis - A Light To Bring Change - таба, видео

Печатать
Просмотров: 92
Okay guys, this is NOT a full tab, with both full song length tabs for all the guitars
(Acoustic, Lead 1 and 2, and rhythm.) rather, It jumps between each part just to give you
a play through of the song...plus i don't feel like tabbing out any more of it ;), if it 
just absolutely kills you, tab it yourself!

Tuning for this tab is drop C (C G C F A D), although i have reasons to believe they
play in drop C# but either way its accurate.  So after long anticipation and requests,
here is A Light To Bring Change from Charis.


Intro (acoustic)
D |--------------------------------------------------------------|
A |--------------------------------------------------------------|
F |-----------8--------------------------4-3h4p3------3-4/6------|  (repeat "x" times)
C |---6-8-9-6--8h9p8---6---------2-4-6-2---------4-6-------------|
G |--6----------------9--6------2--------------------------------|
C |-6----------------------6-4-2---------------------------------|

0:30 (Delayed effect)
D |--------------------------------------------------------------|
A |--------------------------------------------------------------|
F |---13~--15~--16~---15~----------------------------------------|
C |--------------------------------------------------------------|
G |--------------------------------------------------------------|
C |--------------------------------------------------------------|

1:00 (lead)
D |----------------------------------------------------------------------------------|
A |-14/16-16-16-16-16-16-16\11-11-12-11h12p11----------------12121212/14141414-------|
F |----------------------------------------------11-8-11/13-13-13131313/15151515-----|
C |----------------------------------------------------------------------------------|
G |----------------------------------------------------------------------------------|
C |----------------------------------------------------------------------------------|

1:46 (rhythm) (listen to strum sequence in song, tab doesn't display it, only chords)
D |--------------------------------------------------------------|
A |--------------------------------------------------------------|
F |--------------------------------------------------------------|
C |-66666666666-111-2222-444444----------------------------------|
G |-66666666666-111-2222-444444----------------------------------|
C |-66666666666-111-2222-444444----------------------------------|

2:01 (lead)
D |-------------------------------|-------------------------------|
A |-------------------------------|-------------------------------|
F |-------------------------------|-------------------------------|
C |--8h9p8------8-9-11-----------|---11/13~-----------------------|
G |--------9-11-------------[16x]--|------------------------------|
C |-------------------------------|-------------------------------|

2:16 (3rd guitar)
D |----------------------------|--------------------------------|
A |----------------------------|--------------------------------|
F |--8h9p8--------8-11---[8x]---|---11/13~----------------------|
C |--------8-9-11--------------|--------------------------------|
G |----------------------------|--------------------------------|
C |----------------------------|--------------------------------|

2:36 (lead)
D |--------------------------------------------------------------|
A |--------------------------------------------------------------|
F |--------------------------11-16-15-11-18-15-18/20~------------|
C |---13/11----9-11/13~------------------------------------------|
G |---------13---------------------------------------------------|
C |--------------------------------------------------------------|

D |--------------------------------------------------------------------------------|
A |-----------------------------------------------------------------------14/16----|
F |----18-16----16h18p16----16----------------------------------------16-----------|
C |----------18-----------20--------------------------18-----------18--------------|
G |-----------------------------18-16/11-13-14/16--------13-14-16------------------|
C |------------------------------------------------16------------------------------|

D |--------------------------------(18)/19-18h19p18-------------11-9------------------|
A |-------16/19-------19/21-21-16------------------19-14-16-12~-----12-11-------------|
F |-15h16-------15h16------------------------------------------------------11~--------|
C |-----------------------------------------------------------------------------------|
G |-----------------------------------------------------------------------------------|
C |-----------------------------------------------------------------------------------|

D |-----------------------------------------------------------------------------------|
A |--------16----21-16-------------------14-----------------------17------------------|
F |-----16----16--------16----------15------15--------------16-------16---------------|
C |--18--------------------18-13-16---16-------16-13-14-18----18-------18-14----------|
G |-----------------------------------------------------------------------------------|
C |-----------------------------------------------------------------------------------|

D |-----------------------------------------------------------19h23p19-------14/19----|
A |-------14----19-14--------------------------------------------------14h16----------|
F |----15----15-------15------[2x]--16~-18/20\18-16-11-18-23--------------------------|
C |-16-------------------16-----------------------------------------------------------|
G |-----------------------------------------------------------------------------------|
C |-----------------------------------------------------------------------------------|

The rest is just the same chords from earlier throughout the rest of the song, and the
lead guitars i haven't figured out yet, but when i do I'll edit them in, Enjoy!








/   slide up
| \   slide down
| h   hammer-on
| p   pull-off
| ~   vibrato
| +   harmonic
| x   Mute note
Добавлено: 13.11.2013
Другие материалы по этой песне:
  • Аккорды и текст

Страница создана 13.11.2013
http://primanota.ru/charis/a-light-to-bring-change-chords.htm
Привет, Гость.
Предлагаем пройти революционный курс по гитаре.
Подарок от PrimaNota.Ru, забирай!