PrimaNota.ru - самый крупный в мире бесплатный архив песенных текстов, аккордов, табулатур и нот


Chaos Uk - Masturbator - таба, видео

Регистрация Запомнить меня
Войти через:  Facebook Google Twitter Vk Yandex Mail.ru

Chaos Uk - Masturbator - таба, видео

Печатать
Просмотров: 212
hi, i think it's the right way to play this song, i wish u think the same, guys!!! (i'm 
for my english, but i'm a young italian!!)


u get the strum...
intro (the same as the verse)                  end of verse
|--------------------------------------------|-------|
|--------------------------------------------|-------|
|--------------------------------------------|---9---|
|---7---10------7---10---12---------7---5---2|---9---|
|---7---10------7---10---12---------7---5---2|---7---|
|---5---8 ------5---8 ---10---------5---3---0|-------|

solo :u could think it s a bit confuse, but it's just to repeat some parts of the 
think it's right
|--------------------------------------------------------------|
|--------------------------------------------------------------|
|---7--7-5-------5-----5----5---5----5-7-5---5-----------------|
|-----------5-7----7----777--777-777-----------7-7-5---5---5---|
|----------------------------------------------------7---7---7-|
|--------------------------------------------------------------|


|----------------------------------------------------------|
|----------------------------------------------------------|
|----------------7---5--------5------------------------5---|
|--------------7---5---5-7-----7-5---5----5-5-7--5-5-5---7-|
|----------------------------------7-----------------------|
|--5-55-7-5-7-5--------------------------------------------|


if you have the chorus and the lyric please send' em  to me
my e mail adress is whats_up90m@hotmail.it
Добавлено: 21.06.2012
Другие материалы по этой песне:
  • Аккорды и текст

Страница создана 21.06.2012
http://primanota.ru/chaos-uk/masturbator-chords.htm
Привет, Гость.
Предлагаем пройти революционный курс по гитаре.
Подарок от PrimaNota.Ru, забирай!