PrimaNota.ru - самый крупный в мире бесплатный архив песенных текстов, аккордов, табулатур и нот


Chaos Uk - Hate - таба, видео

Регистрация Запомнить меня
Войти через:  Facebook Google Twitter Vk Yandex Mail.ru

Chaos Uk - Hate - таба, видео

Печатать
Просмотров: 146
Chaos UK - Hate

Riff 1 (Verse)
e:--------------------|
b:--------------------|
g:--------------------|
d:7-7-5-5-9-97--7-7-7-|
a:7-7-5-5-9-97--7-7-7-|
e:5-5-3-3-7-75--5-5-5-|

Riff 2 (Chorus)
e:--------------------------|
b:--------------------------|
g:--------------------------|
d:7-7---7-7---7-7---3-3-3-3-|
a:7-7---7-7---7-7---3-3-3-3-|
e:5-5---5-5---5-5---1-1-1-1-|

12x Riff 1
2x Riff 2
8x Riff 1
2x Riff 2
10x Riff 1
2x Riff 2
Добавлено: 22.07.2012
Другие материалы по этой песне:

Страница создана 17.07.2012
http://primanota.ru/chaos-uk/hate-chords.htm
Привет, Гость.
Предлагаем пройти революционный курс по гитаре.
Подарок от PrimaNota.Ru, забирай!