PrimaNota.ru - самый крупный в мире бесплатный архив песенных текстов, аккордов, табулатур и нот


Channel Zero - Suck My Energy - аккорды и текст, таба, видео

Регистрация Запомнить меня
Войти через:  Facebook Google Twitter Vk Yandex Mail.ru

Channel Zero - Suck My Energy - аккорды и текст, таба, видео

Печатать
Просмотров: 173
Suck My Energy
Channel Zero
		   Suck my Energy

   //  ||   ||    /|\    ||\  ||  ||\  ||  |||||  ||
  //   ||   ||   // \\   ||\\ ||  ||\\ ||  ||     ||
  ||   |||||||  |||||||  || \\||  || \\||  |||||  ||
  \\   ||   ||  ||   ||  ||  \||  ||  \||  ||     ||
   \\  ||   ||  ||   ||  ||   ||  ||   ||  |||||  |||||

              ||||||  |||||  ||||\    //|\\
                 //   ||     ||  ||  ||   ||
                //    |||||  ||||/   ||   ||
               //     ||     || \\   ||   ||
              ||||||  |||||  ||  \\   \\|//


INTRO :

riff1a
E--------------------------------------|--------------------------------------|
B--------------------------------------|--------------------------------------|
G--0-0-0-0-0-0-0-0-0-0-0-0----0-0-0-0--|--0-0-0-0-0-0-0-0-0-0-0-0----0-0-0-0--|
D--5-5-5-5-5-5-5-5-5-5-5-5----6-6-6-6--|--5-5-5-5-5-5-5-5-5-5-5-5----6-6-6-6--|
A--------------------------------------|--------------------------------------|
E--------------------------------------|--------------------------------------|


riff1b
E------------------------------------------------------|
B------------------------------------------------------|
G---0--0--0--0--0--0--0--0--0--0--0--0-----0--0--0--0--|
D--12-12-12-12-12-12-12-12-12-12-12-12----15-15-15-15--|
A------------------------------------------------------|
E------------------------------------------------------|

E--------------------------------------------------|
B--------------------------------------------------|
G---0--0--0--0--0--0--0--0--0--0--0--0--0--0--0--0-|
D--11-11-11-11-11-11-11-11-11-11-11-11-11-11-11-11-|
A--------------------------------------------------|
E--------------------------------------------------|


MAIN RIFF :

riff3
E-------------------------------------|----------------------------------|
B-------------------------------------|----------------------------------|
G-------------------------------------|----------------------------------|
D--5-5--6-6--5-5--5--6-6--5-5--3-3--2-|--5-5--6-6--5-5--6--5-5--3-3--2---|
A--5-5--6-6--5-5--5--6-6--5-5--3-3--2-|--5-5--6-6--5-5--6--5-5--3-3--2---|
E--3-3--4-4--3-3--3--4-4--3-3--1-1--0-|--3-3--4-4--3-3--4--3-3--1-1--0---|


CHORUS :

riff4
E---------------------------|-------------------------------------------|
B---------------------------|-------------------------------------------|
G----------7-----6----------|----------7-----6-----8--------------------|
D----5-----7-----6-----7----|----5-----7-----6-----8--------------------|
A----5-----5-----4-----7----|----5-----5-----4-----6--------------------|
E----3-----------------5----|----3--------------------------------------|


BRIDGE :



E----------------------------------------------------------------------------|
B----------------------------------------------------------------------------|
G---0--0--0--0--0--0--0--0--0---0--0-----------------------------------------|
D--12-12-12-12-12-15-12-15-11--14-10-----------------------------------------|
A----------------------------------------------------------------------------|
E----------------------------------------------------------------------------|


send any comments on this tab to pedrodeneusbeer@yahoo.com     
Добавлено: 13.06.2013
Другие материалы по этой песне:
  • Аккорды и текст

Страница создана 18.04.2012
http://primanota.ru/channel-zero/suck-my-energy-chords.htm
Привет, Гость.
Предлагаем пройти революционный курс по гитаре.
Подарок от PrimaNota.Ru, забирай!