PrimaNota.ru - самый крупный в мире бесплатный архив песенных текстов, аккордов, табулатур и нот


Channel 3 - Manzanar - бас-таба, видео

Регистрация Запомнить меня
Войти через:  Facebook Google Twitter Vk Yandex Mail.ru

Channel 3 - Manzanar - бас-таба, видео

Печатать
Просмотров: 149
Уроки эстрадного вокала в Санкт-Петербурге
Авторы: Kimm Gardener, Mike Magrann

Intro
G------------|------------|------------|------------|
D--7-7-7-9-7-|--7-7-7-9-7-|--7-7-7-9-7-|--7-7-7-9-7-|
A-9-9-9------|-9-9-9------|-9-9-9------|-9-9-9------|
E------------|------------|------------|------------|

G-----------------------|-----------------------|**those are tens and 
D---77-99-10---77-99-12-|---77-99-10---77-99-12-|  twelves**
A-99---------99---------|-99---------99---------|
E-----------------------|-----------------------|

G-----------------------|-----------------------|
D---77-99-10---77-99-12-|---77-99-10---77-99-12-|
A-99---------99---------|-99---------99---------|
E-----------------------|-----------------------|

Verse
G----------------------------|----------------------------|
D--7-7-7-7-------------------|--7-7-7-7-------------------|
A-9-9-9-9--5-5-5-5/4/5-5-5-5-|-9-9-9-9--5-5-5-5/4/5-5-5-5-|
E----------------------------|----------------------------|

G----------------------------|----------------------------|
D--7-7-7-7-------------------|--7-7-7-7-------------------|
A-9-9-9-9--5-5-5-5/4/5-5-5-5-|-9-9-9-9--5-5-5-5/4/5-5-5-5-|
E----------------------------|----------------------------|

Chorus
G---------------------------------|---------------------------------|
D---------------------------------|---------------------------------|
A-2-2-2-2---------5-5-5-5---------|-2-2-2-2---------5-5-5-5---------|
E---------2-2-2-2---------5-5-5-5-|---------2-2-2-2---------5-5-5-5-|

G-----------------------|-----------------------|
D---77-99-10---77-99-12-|---77-99-10---77-99-12-|
A-99---------99---------|-99---------99---------|
E-----------------------|-----------------------|

G-----------------------|-----------------------|
D---77-99-10---77-99-12-|---77-99-10---77-99-12-|
A-99---------99---------|-99---------99---------|
E-----------------------|-----------------------|

Verse
G----------------------------|----------------------------|
D--7-7-7-7-------------------|--7-7-7-7-------------------|
A-9-9-9-9--5-5-5-5/4/5-5-5-5-|-9-9-9-9--5-5-5-5/4/5-5-5-5-|
E----------------------------|----------------------------|

G----------------------------|----------------------------|
D--7-7-7-7-------------------|--7-7-7-7-------------------|
A-9-9-9-9--5-5-5-5/4/5-5-5-5-|-9-9-9-9--5-5-5-5/4/5-5-5-5-|
E----------------------------|----------------------------|

Chorus
G---------------------------------|---------------------------------|
D---------------------------------|---------------------------------|
A-2-2-2-2---------5-5-5-5---------|-2-2-2-2---------5-5-5-5---------|
E---------2-2-2-2---------5-5-5-5-|---------2-2-2-2---------5-5-5-5-|

G-----------------------|-----------------------|
D---77-99-10---77-99-12-|---77-99-10---77-99-12-|
A-99---------99---------|-99---------99---------|
E-----------------------|-----------------------|

G-----------------------|-----------------------|
D---77-99-10---77-99-12-|---77-99-10---77-99-12-|
A-99---------99---------|-99---------99---------|
E-----------------------|-----------------------|

Solo
G----------------------------|----------------------------|
D--7-7-7-7-------------------|--7-7-7-7-------------------|
A-9-9-9-9--5-5-5-5/4/5-5-5-5-|-9-9-9-9--5-5-5-5/4/5-5-5-5-|
E----------------------------|----------------------------|

G----------------------------|----------------------------|
D--7-7-7-7-------------------|--7-7-7-7-------------------|
A-9-9-9-9--5-5-5-5/4/5-5-5-5-|-9-9-9-9--5-5-5-5/4/5-5-5-5-|
E----------------------------|----------------------------|

Chorus
G---------------------------------|---------------------------------|
D---------------------------------|---------------------------------|
A-2-2-2-2---------5-5-5-5---------|-2-2-2-2---------5-5-5-5---------|
E---------2-2-2-2---------5-5-5-5-|---------2-2-2-2---------5-5-5-5-|

G-----------------------|-----------------------|
D---77-99-10---77-99-12-|---77-99-10---77-99-12-|
A-99---------99---------|-99---------99---------|
E-----------------------|-----------------------|

G-----------------------|-----------------------|
D---77-99-10---77-99-12-|---77-99-10---77-99-12-|
A-99---------99---------|-99---------99---------|
E-----------------------|-----------------------|

Outro
G--------------------------------------|
D--------------------------------------|
A--7-7-7-7-7-7-7-7-7-7-7-7-7-7-7-7-7-7-|
E-9-9-9-9-9-9-9-9-9-9-9-9-9-9-9-9-9-9--|

G-----------------------|-----------------------|
D---77-99-10---77-99-12-|---77-99-10---77-99-12-|
A-99---------99---------|-99---------99---------|
E-----------------------|-----------------------|

G-----------------------|-----------------------|
D---77-99-10---77-99-12-|---77-99-10---77-99-12-|
A-99---------99---------|-99---------99---------|
E-----------------------|-----------------------|



Добавлено: 16.06.2012
Другие материалы по этой песне:
  • Аккорды и текст

Страница создана 16.06.2012
http://primanota.ru/channel-3/manzanar-chords.htm
Привет, Гость.
Предлагаем пройти революционный курс по гитаре.
Подарок от PrimaNota.Ru, забирай!