PrimaNota.ru - самый крупный в мире бесплатный архив песенных текстов, аккордов, табулатур и нот


Chancho En Piedra - Marca Chancho - таба, видео

Регистрация Запомнить меня
Войти через:  Facebook Google Twitter Vk Yandex Mail.ru

Chancho En Piedra - Marca Chancho - таба, видео

Печатать
Просмотров: 99
Marca Chancho
Agradesco a la página www.funkchanchoweb.net por hacer esto posible.
gracias
Bastian cabrera
y Viva Chile mierda!
Buenos Días A Todos

Intro
|-----------------------------|
|-----------------------------|
|-----------------------------|
|-----------------------------|
|-----------------------------|
|-0-2-0-2-5-2-0-2-0-2-0-5-2-0-|

Verso
|------------------------7-6---------------|
|--------------------5-7-------------------|
|------------------------------------------|
|------------------------------------------|
|-------------------------------------0h2--|
|-0-2-0-2-**-0-2-0-2---------0-2-0-2------3|

**= Ahí tienen que tocar el clavijero

Coro
|-----------------------------|
|-----------------------------|
|-----------------------------|
|-----------------------------|
|-----------------------------|
|-0-2-0-2-5-2-0-2-0-2-0-5-2-0-|

Variación
|-----------|
|-----------|
|-----------|
|-----------|
|---------2-|
|-0-2-0-5---|

Donde y cuando debe comprar...
|---------|
|---------|
|-----4-3-|
|-4-3-4-3-|
|-4-3-2-1-|
|-2-1-----|

Parte ultra chacra
|-----------------|
|-----------------|
|---3-2---6-7-6---|
|-4-3-2-4-6-7-6-5-|
|-4-1-0-4-4-5-4-5-|
|-2-----2-------3-|

Solo
Final
|--------------------|
|--------------------|
|---3-2---6-7-6------|
|-4-3-2-4-6-7-6-5----|
|-4-1-0-4-4-5-4-5----|
|-2-----2-------3----|
|--------------------|
|--------------------|
|---6-5---9-10-9-----|
|-7-6-5-7-9-10-9-8---|
|-7-4-3-7-7-8--7-8---|
|-5-----5--------6---|


Eligiendo Una Reina

Intro y Coros c/Micro Synthesizer
E---------------------|-----------------|----------------|
B---------------------|-----------------|----------------|
G---------------------|-----------------|----------------|
D---------------------|-----------------|----------------|
A---------------------|-----------------|---7-7----------|
E-0-3-5-6-5-0-3-0-0-3-|-5-3-5-6-5-0-3-0-|-3--------------|

E-----------------|-------------|--------------------|---|
B-----------------|-------------|--------------------|---|
G-----------------|-------------|--------------------|---|
D-----------------|-------------|--------------------|---|
A-----------------|-------------|-3-3-2-2--3-2-------|---|
E-0-3-5-6-5-0-3-0-|-5-6-3-5-3-0-|--------------5-3-0-|---|

Estrofa c/Wha-Wha
Lam Mim
Queremos ver las reinas del mañana
Lam Mim Re#m
con bikini toda la semana
Lam Mim
debe tener carita de muñeca
Mi5 Sol5 La5 G-7h9-7
Desde niña hacer dieta para su silueta

Postcoro
E------------------|-------------------------|----------------|----------------|
B------------------|-------------------------|----------------|----------------|
G------------------|-------------------------|----------------|----------------|
D------12-------11-|----11-12-12/13-12-11-12-|----12-------11-|----------------|
A-//13----13-12----|-12----------------------|-13----13-12----|-13-13-12-------|
E------------------|-------------------------|----------------|----------12\\--|

E||-------------------|-------------------------|--------|
B||-------------------|-------------------------|--------|
G||*------------------|-------------------------|--------|
D||*------12-------11-|----11-12-12/13-12-11-12-|--------|
A||--//13----13-12----|-12----------------------|--------|
E||-------------------|-------------------------|--------|
2x
E------------------|------------------------||----------|
B------------------|------------------------||----------|
G------------------|-----------------------*||----------|
D------12-------11-|----11-12-14-14-12-11--*||----------|
A-//13----13-12----|-12---------------------||----------|
E------------------|------------------------||----------|

E------------------|------|
B------------------|------|
G------------------|------|
D------12-------11-|------|
A-//13----13-12----|------|
E------------------|------|

Postcoro
E||-------------------|-------------------------|--------|
B||-------------------|-------------------------|--------|
G||*------------------|-------------------------|--------|
D||*------12-------11-|----11-12-12/13-12-11-12-|--------|
A||--//13----13-12----|-12----------------------|--------|
E||-------------------|-------------------------|--------|
6x
E------------------|------------------------||----------|
B------------------|------------------------||----------|
G------------------|-----------------------*||----------|
D------12-------11-|----11-12-14-14-12-11--*||----------|
A-//13----13-12----|-12---------------------||----------|
E------------------|------------------------||----------|



Lophophora

                   Sim
Lophophora creo que será
                         LaM
mi más proxima reencarnación,
                         Fa#m
quiero levantarme con el sol
                        MiM
bañarme en la bruma matinal.

                      Sim
Una buena manera de vivir
                        LaM
es la que necesito llevar
                          Fa#m
y en mi forma más espiritual
                      MiM
relexionaré con mi sudor


LaM-Fa#m         LaM-Fa#m
Y comprendi que mi final
LaM-Fa#m               LaM-Fa#m
se esta acercando, me está llamando

                        Sim
Olvidarme de la oscuridad
                         La
para respirar tranquilidad,
                    Fa#m
necesito la capacidad
                      Mi
para volar y así visitar
                                       Sim
miles de lugares donde no volveré a pisar,
                        La
es mi despedida más formal
                           Fa#m
y a la hora que toque marchar
                             Mi
un beso en tu alma te visitará.


 LaM-Fa#m         LaM-Fa#m
Y presenti que mi final
LaM-Fa#m               LaM-Fa#m
se esta acercando, me está llevando

Solo
/ = slide
h = hamer

e-----------------------------------------------------------|
b--5-7-5-7-5-7-5----------5-7-5-7-5-7-5---------------------|
g----------------7-4~~~~----------------7-------------------|
d-----------------------------------------7~~~~-------------|
a-----------------------------------------------------------|
e-----------------------------------------------------------|

e--------------5----------------------5---------------------|
b--5-7-5-7-5-7---5-7~~~~--5-7-5-7-5-7---7-5~~~~-------------|
g-----------------------------------------------------------|
d-----------------------------------------------------------|
a-----------------------------------------------------------|
e-----------------------------------------------------------|

e-----------------------------------------------------------|
b--5-7-5-7-5-7-5---5----------5-7-5-7-5-7-5-----------------|
g----------------7---7-4~~~~----------------7---------------|
d---------------------------------------------7~~~~---------|
a-----------------------------------------------------------|
e-----------------------------------------------------------|


e--------------5---6/7~~~~--9-9h10-9--7-7h9-7--5-7-9-7~~~~--|
b--5-7-5-7-5-7---5------------------------------------------|
g-----------------------------------------------------------|
d-----------------------------------------------------------|
a-----------------------------------------------------------|
e-----------------------------------------------------------|

e---------------------------7--5--2~~~~-------------------||
b--9-9h10-9--10-10h12-10-9--7--5--2~~~~-------------------||
g---------------------------7--5--2~~~~-------------------||
d---------------------------9--7--4~~~~-------------------||
a---------------------------9--7--4~~~~-------------------||
e---------------------------7--5--2~~~~-------------------||

Historias De Amor Y Condón

Intro 1:

1 |---2---2---0--0--0--0--|
2 |---3---3---5--5--5--5--|
3 |---4---4---4--6--7--6--|
4 |---4---4---5--5--5--5--|
5 |---2---2---------------|
6 |-----------------------|

Intro 2: (X 4 Veces)
1 |-------------------------|
2 |-------------------------|
3 |---4--2--4--4--2--4--7---|
4 |---4--2--4--4--2--4--7---|
5 |---2--0--2--2--0--2--5---|
6 |-------------------------|

Intro 3: (Cuando agan la primera nota de este sección,
          o sea, donde aparecen los tres 7,no deben
          desarmarla para ejecutar el resto, debe durar
          hasta donde terminan los * ).

      *  *   *  *  *  *  *
1 |------------------------------------------------2----|
2 |---7--7--10--7----------------------------------3----|
3 |---7------------9--7-----6--4s6--9--------------4----|
4 |---7------------------9--7----------9b11r9--7---4----|
5 |-------------------------7----------------------2----|
6 |-----------------------------------------------------|

       Si5
   Historias de amor y condon

       La5
   Escritas con fuego en la piel

      Sol5
   Miles de inventos

     La5
   Se llevo el tiempo

     Si5
   Dificil volver a querer.


      Si5
   Denuevo la misma emoción

      La5
   Mis ganas no puedo esconder

     Sol5
   LLega el momento

      La5
   De nuestro encuentro


1 |-----------------------------------------------------------|
2 |-----------------------------------------------------------|
3 |-----------------------7-------------7-----------7--7------|
4 |---7--9v--7--9v--7--9-----9v---7--9-----9--7-----------9v--|
5 |----------------------------------------------9------------|
6 |-----------------------------------------------------------|

1  ---------------------------|
2  ---------------------------|
3  ---7--9b11r9--7--9--7------|
4  -----------------------9---|
5  ---------------------------|
6  ---------------------------|

Intro 3:

      *  *   *  *  *  *  *
1 |------------------------------------------------2----|
2 |---7--7--10--7----------------------------------3----|
3 |---7------------9--7-----6--4s6--9--------------4----|
4 |---7------------------9--7----------9b11r9--7---4----|
5 |-------------------------7----------------------2----|
6 |-----------------------------------------------------|

1 -----------------------------------------------|
2 -----------------------------------------------|
3 ------------7--7-------7--9v11r9--7--9--7------|
4 ---9--7-----------9v-----------------------9---|
5 ---------9-------------------------------------|
6 -----------------------------------------------|

Intro 3:

      *  *   *  *  *  *  *
1 |------------------------------------------------2----|
2 |---7--7--10--7----------------------------------3----|
3 |---7------------9--7-----6--4s6--9--------------4----|
4 |---7------------------9--7----------9b11r9--7---4----|
5 |-------------------------7----------------------2----|
6 |-----------------------------------------------------|

  (La siguiente estofa es igual a las anteriores,
   Se repite exactamente lo mismo)

Solo 1:

1 |-------------------------------------------------------------------------|
2 |-------------------------------------------------------------------------|
3 |---------------------------------7-----7v------------------------7----7v-|
4 |-------7------------7v-----7--9-----9------------7--7v-----7--9----9-----|
5 |--5s7-----7v--7--9------9-------------------7s9---------9----------------|
6 |-------------------------------------------------------------------------|

1 |---------------------------------------------------------------------|
2 |--------7----------------------------7-------------------------------|
3 |-----------7-----7--9b11r9--7----------7-----7--9b11--7--9--7--------|
4 |---7s9--------9----------------7s9--------9--------------------7s9---|
5 |---------------------------------------------------------------------|
6 |---------------------------------------------------------------------|

1 |------------------------------------------------------------------------|
2 |-----------------------------------------------------5--5s7--5--7--7s8--|
3 |-----------------------------------------4--7--4--7---------------------|
4 |---7--7--5--7--5-------------5-----5--7---------------------------------|
5 |------------------5s7--5--7-----7---------------------------------------|
6 |------------------------------------------------------------------------|

1 |--------------------------------------12--------------|
2 |---7--8--8s10--8--10--12--15--14--15-----15--14--15---|
3 |------------------------------------------------------|
4 |------------------------------------------------------|
5 |------------------------------------------------------|
6 |------------------------------------------------------|


1 |---12--14--12--14--15--17--17b19---|
2 |-----------------------------------|
3 |-----------------------------------|
4 |-----------------------------------|
5 |-----------------------------------|
6 |-----------------------------------|

Solo 2:
1 |------------------------------------------------------------------|
2 |---12--10--9--10--9------9----------------------------------------|
3 |---------------------11-----11--9--11--9------9-------------------|
4 |------------------------------------------12-----12--11--12--11---|
5 |------------------------------------------------------------------|
6 |------------------------------------------------------------------|

1 |------------------------------------------------------------------------|
2 |------------------------------------------------------------------------|
3 |----------------------------------9b11--7--9b11--7--9b11--7--9b11r9--7v-|
4 |--9--11--9------9-------------9-----------------------------------------|
5 |------------12-----12--9--12--------------------------------------------|
6 |------------------------------------------------------------------------|

1 |-------------------------7-------------7--7--7---|
2 |---------7--9--7--9--10-----10--9--10------------|
3 |---7--9------------------------------------------|
4 |-------------------------------------------------|
5 |-------------------------------------------------|
6 |-------------------------------------------------|

1 |---12--10--9--10--9------9---------------------------------------|
2 |---------------------12-----12--10--12--10--9--10--9------9--9---|
3 |------------------------------------------------------11---------|
4 |-----------------------------------------------------------------|
5 |-----------------------------------------------------------------|
6 |-----------------------------------------------------------------|

1 |-------------------------------------------------------------|
2 |---0--7--9--0--7--9--0--7--9--0--2--3--0--2--3--0--7--9--0---|
3 |-------------------------------------------------------------|
4 |-------------------------------------------------------------|
5 |-------------------------------------------------------------|
6 |-------------------------------------------------------------|

1 |-------------------------------------------------------------|
2 |---2--3--0--3--5--0--5--7--0--7--9--0--9--10--0--10--12--0---|
3 |-------------------------------------------------------------|
4 |-------------------------------------------------------------|
5 |-------------------------------------------------------------|
6 |-------------------------------------------------------------|

1 |---------------------------|
2 |---17--19b21--19b21--------|
3 |---------------------17v---|
4 |---------------------------|
5 |---------------------------|
6 |---------------------------|

Final:

Riff 1 (X 2 veces)
1 |---------------------------------------------|
2 |---------------------------------------------|
3 |---------------------------------------------|
4 |---------------------------------------------|
5 |---------------------------------------------|
6 |---0--3--0--3b4r3--0--3--0--3b4r3--0--3--0---|

1 |-----------------------------------------------|
2 |-----------------------------------------------|
3 |-----------------------------------------------|
4 |-----------------------------------------------|
5 |-----------------------------------------------|
6 |---0--3--0--3b4r3--0--3--0--3--5--6--5--3--0---|


Riff 2 (X 1 Veces)

1 |------------------------------------------------|
2 |------------------------------------------------|
3 |------------------------------------------------|
4 |---------2-----4b5r4-----2-----4b5r4-----2------|
5 |---4--4-----4---------4-----4---------4-----4---|
6 |------------------------------------------------|

1 |-----------------------------------------------|
2 |-----------------------------------------------|
3 |-----------------------------------------------|
4 |------2--------4b5r4-----2-----2--4--5--4--2---|
5 |---4-----4--4---------4-----4------------------|
6 |-----------------------------------------------|

               Riff 1: (X 1 veces)

     Do5       La5
   Seeeen sacioooonnnn


                    Riif 1: (X 2 veces)

Este Riff es X 2 veces)

1 |-------------------------------------------------------------|
2 |-------------------------------------------------------------|
2 |-------------------------------------------------------------|
4 |-------------------------------------------------------------|
5 |-------------------------------------------------------------|
6 |---0--0--6--5--3--0--0--6--5--3--0--0--3--0--0--6--5--3--0---|

1 |-------------------------------|
2 |-------------------------------|
3 |-------------------------------|
4 |-------------------------------|
5 |-------------------------------|
6 |---0--3--0--3--5--6--5--3--0---|

Kiltro Virtual

Intro
|---------------------------------------|
|---------------------------------------|
|---------------------------------------|
|---------------------------------1-----|
|-3-3-3h6-------------------1h3-3---3h1-|
|---------3-1-1-1-1-1-1-1h3-------------|

|---------------------------------------|
|---------------------------------------|
|---------------------------------------|
|---------------------------------3-1---|
|-3-3-3h6-------------------1h3-3-----3-|
|---------3-1-1-1-1-1-1-1h3-------------|

Verso

|-----------------------|-------------------------------|
|-----------------------|-------------------------------|
|-----------------------|-------------------------------|
|-----------------------|-------------------------------|
|---------6-------6-----|--------6----8h10h8-6-8-6-5-6--|
|-8-8-6-8---8-6-8---8-6-|-6-8-6-8---8-------------------|

|-----------------------|---------------------------------|
|-----------------------|---------------------------------|
|-----------------------|---------------------------------|
|-----------------------|----------------------------8-10-|
|---------6-------6-----|---------6----8h10h8-6-8-10------|
|-8-8-6-8---8-6-8---8-6-|-6-8-6-8----8--------------------|

|-----------------------|-------------------------------|
|-----------------------|-------------------------------|
|-----------------------|-------------------------------|
|-----------------------|-------------------------------|
|---------6-------6-----|--------6----8h10h8-6-8-6-5-6--|
|-8-8-6-8---8-6-8---8-6-|-6-8-6-8---8-------------------|

|-----------------------|---------------------------------|
|-----------------------|---------------------------------|
|-----------------------|---------------------------------|
|-----------------------|----------------------------8-10-|
|---------6-------6-----|---------6----8h10h8-6-8-10------|
|-8-8-6-8---8-6-8---8-6-|-6-8-6-8----8--------------------|

coro

|------------------------------------------|
|------------------------------------------|
|------------------------------------------|
|---------5-3------------------------1-----|
|-3-3-3h6----------------------1h3-3---3h1-|
|--------------1-1-1-1-1-1-1h3-------------|

|-----------------------------------|
|-----------------------------------|
|-----------------------------------|
|---------5-3-----------------------|
|-3-3-3h6----------------------1h3--|
|--------------1-1-1-1-1-1-1h3------|

Verso

|-----------------------|-------------------------------|
|-----------------------|-------------------------------|
|-----------------------|-------------------------------|
|-----------------------|-------------------------------|
|---------6-------6-----|--------6----8h10h8-6-8-6-5-6--|
|-8-8-6-8---8-6-8---8-6-|-6-8-6-8---8-------------------|

|-----------------------|---------------------------------|
|-----------------------|---------------------------------|
|-----------------------|---------------------------------|
|-----------------------|----------------------------8-10-|
|---------6-------6-----|---------6----8h10h8-6-8-10------|
|-8-8-6-8---8-6-8---8-6-|-6-8-6-8----8--------------------|

|-----------------------|-------------------------------|
|-----------------------|-------------------------------|
|-----------------------|-------------------------------|
|-----------------------|-------------------------------|
|---------6-------6-----|--------6----8h10h8-6-8-6-5-6--|
|-8-8-6-8---8-6-8---8-6-|-6-8-6-8---8-------------------|

|-----------------------|---------------------------------|
|-----------------------|---------------------------------|
|-----------------------|---------------------------------|
|-----------------------|----------------------------8-10-|
|---------6-------6-----|---------6----8h10h8-6-8-10------|
|-8-8-6-8---8-6-8---8-6-|-6-8-6-8----8--------------------|

coro

|------------------------------------------|
|------------------------------------------|
|------------------------------------------|
|---------5-3------------------------1-----|
|-3-3-3h6----------------------1h3-3---3h1-|
|--------------1-1-1-1-1-1-1h3-------------|4x

post coro

Ahi ve tu donde usas palm mute...
|------------------------------|----------|
|------------------------------|----------|
|------------------------------|-------5--|
|-----------5-3------5---------|-----5----|
|-3-3-6-6-6------6-6---6-6-8-6-|-3-6------|
|------------------------------|----------|


Solo Bajo
La guitarra hace esto de fondo...
Las x con wah
|---------xx-------------------|
|---------xx-------------------|
|-17~-----xx-------------------|
|------------------------------|
|------------------------------|
|------------------------------|

|-5-3/5-|
|-5-3/5-|
|-5-3/5-|
|-------|
|-------|
|-------|

Esta parte es muy variante...
|--------------------------|
|--------------------------|
|--------------------------|
|-5-3---3------------------|
|-----6---6-3-6-3-------3--|
|-----------------6-3-6----|

Final
|------------------|
|------------------|
|------------------|
|------------------|
|3-1-1-1-1-1-0-1-3-|
|------------------|

El Curanto

Intro: Con distorción
                ***
E|-------------------------------------------|-----------------------------------------|
B|-------------------------------------------|-----------------------------------------|
G|-------------------------------------------|-----------------------------------------|
D|-------------------------------------------|-----------------------------------------|
A|-------------0p2-----------------0p2---0p2-|------------0p2-----------------0p2------|
E|12/5-5-3-2-2-----0-0-0-3p5-3-2-2-----0-----|0-3p5-3-2-2-----0-0-0-3p5-3-2-2-----0----|

  Levantate hombre.....
                                                        X 2
E|------------------|                              |-------------------------|
B|------------------|                              |-------------------------|
G|4-4-4-6-8-8/9-9/0-| con tres ***                 |/14-14-14-16-17-16/12----|
D|------------------|                              |-------------------------|
A|------------------|                              |-------------------------|
E|------------------|                               |------------------------|

   reff fa#                      reef sim#          reef sol  reef fa#  reef la
E|---------|-4/0-|--------|-2/0-|---------|--------|---------|---------|---------|
B|---------|-4/0-|--------|-2/0-|---------|--------|---------|---------|---------|
G|---------|-4/0-|--------|-2/0-|---------|--------|---------|---------|---------|
D|---------|-4/0-|--------|-2/0-|-------4-|--------|---------|---------|---------|
A|-------4-|-----|------4-|-----|2--------|--------|-------5-|-------4-|--------7|
E|2--------|-----|2-------|-----|---------|-0-12/0-|3--------|2--------|5--------|

E|---------------------|                   |-------|-------|-------|
B|---------------------|                   |-------|-------|-------|
G|------/12-12-11p12-9-|                   |-------|-------|-------|
D|---------------------|                   |-------|-----9-|-------|
A|---------------------|                   |-----7-|7------|-----9-|
E|0-2-3----------------|                   |5------|-------|7------|


E|------------------------------------------------------|-------|
B|------------------------------------------------------|-------|
G|------------------------------------------------------|-------|
D|------------------------------------------------------|-----9-|
A|/12-12-12-10-12-10-9-10-9-7-/12-12-12-10-12-10-9-10-5-|7------|
E|------------------------------------------------------|-------|


Mampato

Introduccion (Con Vibracion)

e-------------------------------|
B-------------------------------|
G-------------------------------|
D--3~~---9~~-----4~~---10~~-----|
A--5~~---7~~-----6~~---8~~------|
E-------------------------------|

Riff 1 Tokar A B A

A:
e------------------------------------------------------|
B-1-1--------------------------------------------------|
G-----0-1-3-1-0---0-1-0-0--------0---------------------|
D---------------3------------2-3---3-2-0-2-3--2-2------|
A------------------------------------------------------|
E------------------------------------------------------|

B:
e--------------|
B--------------|
G--------------|
D-2-0-2-3-2-0--|
A--------------|
E--------------|

Riff 2 (Luego tokas esto bien rapido )
e------------------------------------------------------|
B------------------------------------------------------|
G-----------------1-0-1-3-1-0-3-1-0-3-1-0--------------|
D-2-2-2-0-2-3-2-3-------------------------3-2-0--------|
A-----------------------------------------------3------|
E------------------------------------------------------|

Verso A)
Do                      La
Cuando adelante va, no siempre el tiempo queda atrás,
Do                      La
Su nombre se dirá del norte hasta tierra austral.
Mampato, mampato, mampato!.

Verso B)
e----------------------------------------|
B----------------------------------------|
G-------------------------------0h1h2----|
D-2-0---------------2-0------------------|
A-----2-1-2-1-0---------2-1-2-1----------|
E----------------------------------------|

Viaja con su cinto espacio temporal

e---------------------------------------------------------------|
B---------------------------------------------------------------|
G------------------------------------------------------0h1h2~~--|
D-2-0---------------2-0-----2-0-----2-0------------0h2----------|
A-----2-1-2-1-0---------2-1-----2-1-----2-1--0-1-2--------------|
E---------------------------------------------------------------|

Ir al pasado      ir al futuro para él es  normal.
B)
Siempre deja amigos en todo lugar
Imparte justicia donde hay problemas, trae la libertad.
A)
Va con seguridad venciendo la adversidad.
La ayuda la amistad de un hombre cavernícola.
Ogú, Ogú, Ogú!.
B)
Ogú es su nombre, no sabe nadar
Tiene mas fuerza que le mas feroz animal.
Juntos viajarán, el tiempo cambiarán,
Futuro y pasado tengan cuidado que ellos para allá van.
Aqui tokas lo Sgte:
Riff 1 >> A B A
Riff 2
A)
Su mano extenderán a quien tenga dificultad.
Siempre ellos irán  luchando por la igualdad.

Verso C)
Fa           Sol             Do
Verán que hay maldad e historia llenas de crueldad,
Fa                  Mi
Pero la hermandad triunfa al final.

B)
Viajan al futuro, al siglo 40,
Mampato conoce a Reina, una niña que es telépata.
Inmediatamente ella se enamora
Se une con ellos en la aventura de cambiar la historia.
Ahora vienen los Siguintes riff:

Riff 4
e--------------------|
B--------------------|
G--------------------|
D-4-4-4-2-4----------|
A-----------3-2-0----|
E--------------------|

Riff 5
e---------------|
B---------------|
G---------------|
D---------------|
A-2-2-2-0-4-----|
E-----------2-2-|

Este es el orden
Riff 4>
Riff 4>
Riff 4>
riff 5>
riff 5> Todo x 4

Coro gola-Gola
e------------------------------------------------------|
B--------Lo Tokas Durante Todo el Coro-----------------|
G------------------------------------------------------|
D------------------------------------------------------|
A--------------------------------1--3--4--3--4--3------|
E--3--x--3--3--x--3--3--x--3--3------------------------|
"Gola, gola, ihmba, pathana, yica karnita, kili,  kili, mi le pega
Pumba, pumba, ihmbara ihmba, ihmba pathana, rojo tios, kamú
Aguakekorre, uhmbarha ihmba, tinalin, amiko mampatú, akarrúú"
"pathana!(ihmba!), pathana!(ihmba!), pathana!(ihmba!)... AKARRÚÚ!"

Fa#5     La5      Do5
Mampato, mampato, mampato...

Riff 6>
e-----------------------------------|
B-----------------------------------|
G-----------------------------------|
D-4-4-4-2-4--------4-4-4-2-4--------|
A-----------2-2--------------2-2~~--|
E-----------------------------------|

Ahora Se Toka:
Riff 5>
Riff 5>
Riff 4>  Una Pausa ya ke viene el solo de bateria del Toño
Riff 4>  Otra Pausa ya ke viene el Otro solo de bateria del Toño con percusion
Riff 4>  La ultima Pausa ya ke viene el ultimo solo de bateria del Toño
Riff 5>
Riff 5>

Verso D)
Fa#5
En cada lectura una aventura,
La5             Do5 Si5  Do5 Si5
En tierras pasadas o tierras futuras
D)
Venció amenazas de todas las razas,
Bajo la tierra o de otras galaxias.
D)
Muchos maleantes, pueblos mutantes,
Gente macabra, monstruos.

Verso E)
Fa#5
Su valentía y compañía,
La5         Do5 Si5 Do5 Si5 Do5 Si5 Do5 Si5
Lo hace invencible frente a la vida...
Re - Do# - Do - Si - Sib - La ( opcional )
Aqui tokas lo Siguiente>
Riff 1> X 3
Anda!, ve y pelea!,
Ihmba!,pumba!, akarruu!(x2)
Do    Do       Mi    Mi

e-------------------------------------|
B-1-1---------------------------------|
G-------------------------------------|
D----------5-----5---------9------9---|
A----------3-----3---------7------7---|
E-------------------------------------|

Riff 7 y Final
e-------------------------------------|
B-------------------------------------|
G-2-3-5-3-2-------0-2-0-2-3-2-3-5-3---|
D------------4-3----------------------|
A-------------------------------------|
E-------------------------------------|

e---------------------------------------|
B---------------------------------------|
G-5-6-5-6-8-6-5-6-5---3-5-3-2-3-2-------|
D----------------------------------4~~~-|
A---------------------------------------|
E---------------------------------------|

Tocarlo con mucha armonia....
e----------------0--------------------------8-----|
B-------------1--------------------------8--------|
G----------0--------------------------9-----------|
D-------2-------------------------10--------------|
A----3------------------------10------------------|
E--------------------------8----------------------|









Brocacochi

Intro
|-----------------------------------|
|-----------------------------------|
|-----------------------------------|
|--------------------------------5--|
|---5h7-5------5-------------5h7----|
|-0-------7-5-7--7-5-3-5-3-0--------|

verso
|-3-9--3-7-5-3-|
|-3-10-3-7-5-3-|
|-3-9--3-7-5-3-|
|--------------|
|--------------|
|--------------|

Mi intencion...
|------------------------------|
|------------------------------|
|-7-12-7-7-9-7-----------------|
|-7-12-7-7-9-7-8-7-5-7-8-7-5-2-|
|-5-10-5-5-7-5-8-7-5-7-8-7-5-2-|
|--------------6-5-3-5-6-5-3-0-|

Tratar de gozar...
Lo tocai con quintas
|---------------------------------|
|---------------------------------|
|---------------------------------|
|---------------------------------|
|-5-7-5-1-0-5-7-5-----------------|
|-----------------6-5-3-5-6-5-3-0-|

Hermanos Marranos

Mientras esta el bajo se hace esto

|---|
|---|
|-9-|
|-9-|
|-7-|
|---|

verso
|-----|
|-----|
|-9-7-|
|-9-7-|
|-7-5-|
|-----|

pronto seremos muchos mas...
|-----|
|-----|
|-----|
|-4-9-|
|-4-9-|
|-2-7-|

Coro
|--------------------------|
|--------------------------|
|-9---9---7----------------|
|-9-9-9-9-7-7-6-4-6-7-6-4--|
|-7-9-7-9-5----------------|
|---7---7------------------|




postcoro
Ahivei tu las veces y weas asi
|-----------|-----------------|
|-----------|-----------------|
|---------7-|-----------------|
|-2-5-5---7-|-7-6-4-----------|
|-2-----7-5-|-----------------|
|-0---------|-------4-5-4-2-0-|

Solo
Es re mula

|---------------|
|---------------|
|-7-6-4-6-7-6-4-|
|---------------|
|---------------|
|---------------|2x

Tocalo con quintas

|-----------------------|
|-----------------------|
|-----------------------|
|-----------------------|
|-----------------------|
|-5-5-4-2-4-5-4-2-4-2-0-|

El Día En Que Los gatos...
Intro/Coro

|------------------------------------------|
|------------------------------------------|
|---------9/11-7-9-------------------------|
|-9-9-9---9/11-7-9-5-5-5-5-4-4-6-6---------|
|-9-9-9---7/9--5-7-5-5-5-5-4-4-6-6---------|
|-7-7-7------------3-3-3-3-2-2-5-5---------|

|-----------------------------|
|-----------------------------|
|-4-4-4/11-9-7-9-11-9---------|
|-4-4-4/11-9-7-9-11-9-4-4-4-5-|
|-2-2-2/9--7-5-7-9--7-4-4-4-5-|
|---------------------2-2-2-3-|

Verso
Con un rasgueo reggae (no se como se escribe)

|-3-3-2-2-3-3-5-5-|
|-3-3-2-2-3-3-5-5-|
|-----------------|
|-----------------|
|-----------------|
|-----------------|

Precoro
una parte no suena muy bien pero no cache bien como era

|-----------------|
|-----------------|
|-----------------|
|-----------------|
|-----------------|
|-3-3-2-3-2-3-5-2-| Con palm mute

Los gatos hicieron la paz con los ratones..

|-------------|
|-------------|
|-------------|
|-7-5-4-5-4---|
|-------------|
|-------------|

Dificil fue volver a comenzar

Tienen un wah ma raro que la chuhca y despues esto
Con wah distorcionado
|-----------------------------------------|
|-----------------------------------------|
|-----------------------------------------|
|---------------------------4-------------|
|-2-2-0-2-0-2-5-2-2-2-0-2-5---5-7-5-2-----|
|-------------------------------------5-0-|

SOLO!!!!!

ESte solo es demasiado weno y no es muy peluo pero es ma vacilon
ke la chucha!!! iwal me costo sacarlo.

|-----------------------------------------------------------|
|-7-8-10-8-7-------------------------------------10-8-7-7h8-|
|------------9-7-6-7-9-7-6-7-6-------6---6-7-9-7------------|
|------------------------------8-7-8---8--------------------|
|-----------------------------------------------------------|
|-----------------------------------------------------------|

El hammer sigue ahi por si acaso...

|-----------7-5-7-8-7-5-7-5--|
|-h7-7-8-10------------------|
|----------------------------|
|----------------------------|
|----------------------------|
|----------------------------|

El Hammer de ahi se repite varia veces
|----8h7h5-10-8-10-12-10-12-14-12-10-12-10-7-10-7-5-7-5-7-9--|
|------------------------------------------------------------|
|------------------------------------------------------------|
|------------------------------------------------------------|
|------------------------------------------------------------|
|------------------------------------------------------------|

|-10-9-7--5-7-5-2-5-7-9-7-9-|
|---------------------------|
|---------------------------|
|---------------------------|
|---------------------------|
|---------------------------|

|-10-12-14-12-14-15-5-3/14-|
|--------------------------|
|--------------------------|
|--------------------------|
|--------------------------|
|--------------------------|

Me Vuelvo Mono

Intro Con wah
|-----------|-----------|----------|
|-------3-5-|-------3-5-|------3---|
|-2-4-5-----|-2-4-5-----|-2-4-5--5-|
|-----------|-----------|----------|
|-----------|-----------|----------|
|-----------|-----------|----------|

Verso en orden (estan todas las variaciones
en el orden que van,etc)
Tu poni los rasgueos
|-----------|-----------|----------|-----------|
|-------3-5-|-------3-5-|------3---|-5-3-------|
|-2-4-5-----|-2-4-5-----|-2-4-5--5-|-----5-2-2-|
|-----------|-----------|----------|-----------|
|-----------|-----------|----------|-----------|
|-----------|-----------|----------|-----------|

|-----------|-----------|----------|-7-7-|
|-------3-5-|-------3-5-|------3---|-5-5-|
|-2-4-5-----|-2-4-5-----|-2-4-5--5-|-5-5-|
|-----------|-----------|----------|-----|
|-----------|-----------|----------|-----|
|-----------|-----------|----------|-----|


|-----------|-----------|----------|---------------------|
|-------3-5-|-------3-5-|------3---|----3-4^-4^-4^-4^-5--|
|-2-4-5-----|-2-4-5-----|-2-4-5--5-|-5-------------------|
|-----------|-----------|----------|---------------------|
|-----------|-----------|----------|---------------------|
|-----------|-----------|----------|---------------------|

|-----------|----------|--------------------|
|-------3-5-|------3---|-3-4b5b4-3----------|
|-2-4-5-----|-2-4-5--5-|-----------5-2-0-2--|
|-----------|----------|--------------------|
|-----------|----------|--------------------|
|-----------|----------|--------------------|

|-----------|----------|-5-5--|
|-------3-5-|------3---|-7-7--|
|-2-4-5-----|-2-4-5--5-|-7-7--|
|-----------|----------|------|
|-----------|----------|------|
|-----------|----------|------|

|-----------|-----------|----------|-------------------|
|-------3-5-|-------3-5-|------3---|-3-4b5b4-3-------3-|
|-2-4-5-----|-2-4-5-----|-2-4-5--5-|-----------5-2-0---|
|-----------|-----------|----------|-------------------|
|-----------|-----------|----------|-------------------|
|-----------|-----------|----------|-------------------|

|-----------|----------|---------|
|-------3-5-|------3---|----3^*--|
|-2-4-5-----|-2-4-5--5-|-5-------|
|-----------|----------|---------| *= hartas veces
|-----------|----------|---------| *= no toy seguro de esto
|-----------|----------|---------|

||-----------|-----------|--------------------|--------------------|
|-------3-5--|-------3-5-|------3-------------|-3-4b5b4-3----------|
|-2-4-5------|-2-4-5-----|-2-4-5--5-----------|-----------5-2-0-2--|
||-----------|-----------|--------------------|--------------------|
||-----------|-----------|--------------------|--------------------|
||-----------|-----------|--------------------|--------------------|

Coro
Con wah

|-----------------|-----------------|
|-5-3-------------|-5-3-------------|
|-----5-2-0-2-7-5-|-----5-2-0-2-----|
|-----------------|-----------------|
|-----------------|-------------5-3-|
|-----------------|-----------------|

|-----------------|-----------------|
|-5-3-------------|-5-3-------------|
|-----5-2-0-2-7-5-|-----5-2-0-2-----|
|-----------------|-----------------|
|-----------------|-----------------|
|-----------------|-----------------|

Verso 2

|-----------|----------|-----------|
|-------3-5-|------3---|-5-3-------|
|-2-4-5-----|-2-4-5--5-|-----5-2-2-|
|-----------|----------|-----------|
|-----------|----------|-----------|
|-----------|----------|-----------|

|-----------|-----------|----------|-7-7-|
|-------3-5-|-------3-5-|------3---|-5-5-|
|-2-4-5-----|-2-4-5-----|-2-4-5--5-|-5-5-|
|-----------|-----------|----------|-----|
|-----------|-----------|----------|-----|
|-----------|-----------|----------|-----|

|-----------|-----------|----------|-----------|
|-------3-5-|-------3-5-|------3---|-5-3-------|
|-2-4-5-----|-2-4-5-----|-2-4-5--5-|-----5-2-2-|
|-----------|-----------|----------|-----------|
|-----------|-----------|----------|-----------|
|-----------|-----------|----------|-----------|

|-----------|-----------|----------|--------------------|
|-------3-5-|-------3-5-|------3---|-3-4b5b4-3----------|
|-2-4-5-----|-2-4-5-----|-2-4-5--5-|-----------5-2-0-2--|
|-----------|-----------|----------|--------------------|
|-----------|-----------|----------|--------------------|
|-----------|-----------|----------|--------------------|

Coro
Con wah

|-----------------|-----------------|
|-5-3-------------|-5-3-------------|
|-----5-2-0-2-7-5-|-----5-2-0-2-----|
|-----------------|-----------------|
|-----------------|-------------5-3-|
|-----------------|-----------------|

Que es lo que te pasa...

|-------------------------------------------------------------------|
|-------------------------------------------------------------------|
|-------------------------------------------------------------------|
|-------------------------------------------------------------------|
|-5-6-5-3-5-3-----3----------3----3-----------3-6-5-3-3-5-3-------3-|
|-------------5-3---3-5-3--5--5-3---5-5-5-3-5---------------5-3-5---|

Verso 3

|-----------|-----------|----------|-----------|
|-------3-5-|-------3-5-|------3---|-5-3-------|
|-2-4-5-----|-2-4-5-----|-2-4-5--5-|-----5-2-2-|
|-----------|-----------|----------|-----------|
|-----------|-----------|----------|-----------|
|-----------|-----------|----------|-----------|


|-----------|-----------|----------|-7-7-|
|-------3-5-|-------3-5-|------3---|-5-5-|
|-2-4-5-----|-2-4-5-----|-2-4-5--5-|-5-5-|
|-----------|-----------|----------|-----|
|-----------|-----------|----------|-----|
|-----------|-----------|----------|-----|


|-----------|-----------|----------|---------------------|
|-------3-5-|-------3-5-|------3---|----3-4^-4^-4^-4^-5--|
|-2-4-5-----|-2-4-5-----|-2-4-5--5-|-5-------------------|
|-----------|-----------|----------|---------------------|
|-----------|-----------|----------|---------------------|
|-----------|-----------|----------|---------------------|

|-----------|----------|--------------------|
|-------3-5-|------3---|-3-4b5b4-3----------|
|-2-4-5-----|-2-4-5--5-|-----------5-2-0-2--|
|-----------|----------|--------------------|
|-----------|----------|--------------------|
|-----------|----------|--------------------|

Coro
Con wah

|-----------------|-----------------|
|-5-3-------------|-5-3-------------|
|-----5-2-0-2-7-5-|-----5-2-0-2-----|
|-----------------|-----------------|
|-----------------|-------------5-3-|
|-----------------|-----------------|


Que es lo que te pasa...

|-------------------------------------------------------------------|
|-------------------------------------------------------------------|
|-------------------------------------------------------------------|
|-------------------------------------------------------------------|
|-5-6-5-3-5-3-----3----------3----3-----------3-6-5-3-3-5-3-------3-|
|-------------5-3---3-5-3--5--5-3---5-5-5-3-5---------------5-3-5---|

Final

|-------------------------|
|-------------------------|
|-------------------------|
|-------------------------|
|-----------------------3-|
|-5-3-5-5-3-5-5-3-5-3-5---|


|-----------------------------------------------------|
|-----------------------------------------------------|
|-----------------------------------------------------|
|-------------------------------5-3-------------------|
|-5-3-0-5-3-0-3-5-3-6-6-6-6-5-6-----6-5-3-5-6-5-3-----|
|-------------------------------------------------(5)-| ()=Solo se toca la ultima vez.

Pata en la Raja

Palm Mute to le poni ritmo..
|---|
|---|
|---|
|-2-|
|-2-|
|-0-|

Verso
Tocai esto con el ritmo de pata en la raja
|-------| y despues todo el rato...
|-------|
|-12-11-|
|-12-11-|
|-10-9--|
|-------|

Pre coro

|----|
|----|
|-14-|
|-14-|
|-12-|
|----|

Coro
|---|
|---|
|---|
|-2-|
|-2-|
|-0-|

Derepente esta esto
|----|
|----|
|----|
|-8~-|
|----|
|----|

Cuando esta terminando entremedio tiene la wea de arriba y este
y asi termina tambien
|-------|
|-------|
|-------|
|-2-5-2-|
|-2-5-2-|
|-0-3-0-|

Parte "galactica"

No se que efecto es es muy raro
pero estas son las notas...
|------------|
|------------|
|------------|
|------------|
|---10-9-7-5-|
|-3----------|

Variación
|-----------|
|-----------|
|-----------|
|-----------|
|---10-9-12-|
|-3---------|
Добавлено: 20.07.2013
Другие материалы по этой песне:
  • Аккорды и текст

Страница создана 20.07.2013
http://primanota.ru/chancho-en-piedra/marca-chancho-chords.htm
Привет, Гость.
Предлагаем пройти революционный курс по гитаре.
Подарок от PrimaNota.Ru, забирай!