PrimaNota.ru - самый крупный в мире бесплатный архив песенных текстов, аккордов, табулатур и нот


Chancho En Piedra - Guachperry - бас-таба, видео

Регистрация Запомнить меня
Войти через:  Facebook Google Twitter Vk Yandex Mail.ru

Chancho En Piedra - Guachperry - бас-таба, видео

Печатать
Просмотров: 61
INTRO

G --------------------------------------------------------------------9-
D 5---------------5-7-5-----------5-7-7-8-7-5-7---5---------------7-9---
A --7-7-7-7-7-7-7-------7-7-7-7-7---------------5---7-7-7-7-7-7-7-------
E ----------------------------------------------------------------------

G -----------------------------------------------------------
D 5--------------5-----------------5-7-5-------------5-7-----
A --7-7-7-5h7-/7---7-7-5-7-7-7-7-7-------7-7-5-7-7-7-----7-5-
E -----------------------------------------------------------

G --------------------------------------------------------
D 5-----------------5-7-5-----------5-5---5-7-------------
A --7-7-5-7-7-7-7-7-------7-7-5-7-7-----7-----5-7-7-7-5---
E ------------------------------------------------------7-

VERSO

G --------------------------------------------------------
D 5-----------------5-7-5-----------5-5---5-7-------------
A --7-7-5-7-7-7-7-7-------7-7-5-7-7-----7-----5-7-7-7-5---
E ------------------------------------------------------7-  X2

CORO(SLAP)

G ------------------------------------------------------
D ------------------------------------------------------
A ----------------------5-------------------------------
E 3-0-0-0-0-3-0-0-0-5-7---3-0-0-0-0-3-0-3-5-5h6h5-3h5h3-

G ----------------------------------------------
D ----------------------------------------------
A ----------------------5-----------------------
E 3-0-0-0-0-3-0-0-0-5-7---3-0-0-0-0-3-0-3-5-6-5-

VERSO

G --------------------------------------------------------
D 5-----------------5-7-5-----------5-5---5-7-------------
A --7-7-5-7-7-7-7-7-------7-7-5-7-7-----7-----5-7-7-7-5---
E ------------------------------------------------------7-  X2

CORO(SLAP)

G ------------------------------------------------------
D ------------------------------------------------------
A ----------------------5-------------------------------
E 3-0-0-0-0-3-0-0-0-5-7---3-0-0-0-0-3-0-3-5-5h6h5-3h5h3-

G ----------------------------------------------
D ----------------------------------------------
A ----------------------5-----------------------
E 3-0-0-0-0-3-0-0-0-5-7---3-0-0-0-0-3-0-3-5-6-5-

G ----------------------------------------------------------------
D ----------------------------------------------------------------
A ------------------------------------------------5h7-5h7-5h7-5h7-
E 5-5-5-5-5-5-5-5-3-3-3-3-3-3-3-3-2-2-2-2-2-2-2-2-----------------

G --------------------------------------------------
D --------------------------------------------------
A --------------------------------------------------
E 5-5-5-5-5-5-5-5-3-3-3-3-3-3-3-3-2-2-2-2-2-2-2-2-2-

INTERLUDIO

G ---------------
D ---------------
A ------------/7-
E 2-2-2-2-2-2----

G ---------------------------------------------------------------
D -5---------5---5-7/8\7-5-----5-----------5-5---5-7-------------
A ---7-5-7-7---7-----------3-5---7-7-5-7-7-----7-----5-7-7-7-5---
E -------------------------------------------------------------7- X2

G --------------------------------------------4-4-4-----
D 5---------------5-7-5-----------5-5-5-7-7-7-------7-5-
A --7-7-7-7-7-7-7-------7-7-5-7-7-----------------------
E ------------------------------------------------------

G 12----------------------12-14-12-------------12----
D ---14-14-14-14-14-14-14----------14-14-12-14----14-
A ---------------------------------------------------
E ---------------------------------------------------

G ------------12-------------------------------
D 12-14-14-14----14-12-10-10----10-------------
A ---------------------------12----12-10----10-
E ---------------------------------------12----

VERSO

G --------------------   
D 5---------------5-7-   
A --7-7-7-7-7-7-7-----   
E --------------------X3 

G ----------------------------------------------------------------
D 5---------------------------------------------------------------
A --7-7-5-7-7-5-5-3-3-2-2-1-1-0-----------------------------------
E ------------------------------3-2-2-2-2-2-2-2-0-2-2-2-2-2-2-\12-

CORO(SLAP)

G ------------------------------------------------------
D ------------------------------------------------------
A ----------------------5-------------------------------
E 3-0-0-0-0-3-0-0-0-5-7---3-0-0-0-0-3-0-3-5-5h6h5-3h5h3-

G ----------------------------------------------
D ----------------------------------------------
A ----------------------5-----------------------
E 3-0-0-0-0-3-0-0-0-5-7---3-0-0-0-0-3-0-3-5-6-5-

G ----------------------------------------------------------------
D ----------------------------------------------------------------
A ------------------------------------------------5h7-5h7-5h7-5h7-
E 5-5-5-5-5-5-5-5-3-3-3-3-3-3-3-3-2-2-2-2-2-2-2-2-----------------

G --------------------------------------------------
D --------------------------------------------------
A --------------------------------------------------
E 5-5-5-5-5-5-5-5-3-3-3-3-3-3-3-3-2-2-2-2-2-2-2-2-2-
Добавлено: 06.08.2013
Другие материалы по этой песне:
  • Аккорды и текст

Страница создана 06.08.2013
http://primanota.ru/chancho-en-piedra/guachperry-chords.htm
Привет, Гость.
Предлагаем пройти революционный курс по гитаре.
Подарок от PrimaNota.Ru, забирай!