PrimaNota.ru - самый крупный в мире бесплатный архив песенных текстов, аккордов, табулатур и нот


Chancho En Piedra - Da La Claridad - бас-таба, видео

Регистрация Запомнить меня
Войти через:  Facebook Google Twitter Vk Yandex Mail.ru

Chancho En Piedra - Da La Claridad - бас-таба, видео

Печатать
Просмотров: 80
song: Da la claridad
Artist: Chancho en piedra
Album:

tabbed by Francisco Barros (chanchofbp@hotmail.com)
comments and questions are welcomed.

Intro:
G|---------------------------14-|-----------------/18-14-16---|
D|-16-16-14-16--14-16--14-16----|-16-16-14-16--14-------------|
A|------------------------------|-----------------------------|
E|------------------------------|-----------------------------|

G|---------------------------14-|-/17-16-14--------------------------------|---|
D|-16-16-14-16--14-16--14-16----|-----------16-14-----------------14-14h16-|---|
A|------------------------------|-----------------16-14--14-14h16----------|---|
E|------------------------------|------------------------------------------|-2-|

Verse:
"hoy me siento un poco nublado..."
G|--------------------------------------|
D|---------9----7-------------9-----7---|
A|-----7-9----9-----9-----7-9---7h9---9-|
E|-7------------------7-----------------|

G|--------------------------------------|
D|---------7------5-----------7---------|
A|-----5-7------7---7-----5h7---7-------|
E|-5----------5-------5-----------5--6--|

G|--------------------------------------|
D|---------9----7-------------9-----7---|
A|-----7-9----9-----9-----7-9---7h9---9-|
E|-7------------------7-----------------|

G|--------------------------------------|
D|---------4----2----------4------------|
A|-----2-4----4---4----2h4---4----------|
E|-2----------------2-----------2---5---|

(verse 2)
G|--------------------------------------|
D|---------9----7-------------9-----7---|
A|-----7-9----9-----9-----7-9---7h9---9-|
E|-7------------------7-----------------|

G|--------------------------------------|
D|---------7------5-----------7---------|
A|-----5-7------7---7-----5h7---7-------|
E|-5------------------5-----------5--6--|

G|--------------------------------------|
D|---------9----7-------------9-----7---|
A|-----7-9----9-----9-----7-9---7h9---9-|
E|-7------------------7-----------------|

G|--------------------------------------|
D|---------4----2----------4------------|
A|-----2-4----4---4----2h4---4----------|
E|-2----------------2-----------2--//7--|

Chorus
"Da la claridad a nuestro sol..."
G|--------------------------------------|
D|-4--------------4---2-----------2-----|
A|----4-------2h4-------2-------2-------|
E|------2-2----------------0-0----------|

G|-----4-4------4----------6-4------------|
D|---4------2h4---4----4h6-----7--6/7-6---|
A|-2----------------4---------------------|
E|----------------------------------------|

G|---------------------------------------|
D|-4--------------4---2------------2-----|
A|----4-------2h4-------2--------2-------|
E|------2-2---------------4-3-0----------|

G|-----4-4------4------------6------------|
D|---4------2h4---4------6----------------|
A|-2----------------4---------------------|
E|----------------------------------------|

Verse 3 & 4:

G|----------16-----14-------------16-------14-----|
D|----14-16-----16----16----14-16----14-16----16\-|
A|-14--------------------14-----------------------|
E|------------------------------------------------|

G|----------14-----12-------------14---------------|
D|----12-14-----14----14----12h14----14------------|
A|-12--------------------12-------------12--//14\\-|
E|-------------------------------------------------|

G|--------------------------------------|
D|---------9----7-------------9-----7---|
A|-----7-9----9-----9-----7-9---7h9---9-|
E|-7------------------7-----------------|

G|--------------------------------------|
D|---------4----2----------4------------|
A|-----2-4----4---4----2h4---4-----0----|
E|-2----------------2-----------2-------|

G|--------------------------------------|
D|---------9----7-------------9-----7---|
A|-----7-9----9-----9-----7-9---7h9---9-|
E|-7------------------7-----------------|

G|--------------------------------------|
D|---------7----5-----------------------|
A|-----5-7----7---7--5-4--5-4----4------|
E|-5---------------------------5---5-5--|

G|--------------------------------------|
D|---------9------9-----------9-----7---|
A|-----7-9----7-9---9-----7-9---7h9---9-|
E|-7------------------7-----------------|

G|--------------------------------------|
D|---------4----2----------4------------|
A|-----2-4----4---4----2h4---4----------|
E|-2----------------2-----------2--5-4--|

(Chorus)
...last time
G|-----4-4------4------------6-6---4------|
D|---4------2h4---4----4h6----------------|
A|-2----------------4---------------------|
E|----------------------------------------|

Trumpet Solo:
   (F#)                   (E)
G|-----------------14-14-------------9-9--|
D|-11--------14-14-----------9-9----------|
A|----12-12----------------7-----7-7------|
E|----------------------------------------|

   (D)                   (C#)
G|----------------------------------------|
D|----7-7------5-----7--------------------|
A|--5------5h7-----5----5-4------0--1--2--|
E|----------------------------------------|

Interlude:
"si es que no te veo en mucho tiempo.."
G|----------------------------------------|
D|----------------------------------------|
A|----------------------------------------|
E|-2-----2-2-------2-0-2-----5---7--------|

G|----------------------------------------|
D|----------------------------------------|
A|----------------------------------------|
E|-2-----2-2-------2-0-2-----0---1--------|

G|----------------------------------------|
D|------------------------------2---------|
A|-------------------------0--4---4-0-2-0-|
E|-2-----2-2-----2-2-0-2------------------|

G|--------------5-4-2----------------------|---|
D|--------------------4-2------------2-2h4-|---|
A|------------------------4-2--2-2h4-------|---|
E|-2-----2-2-------------------------------|-2-|

Guitar Solo:
G|--------------------------------------|
D|---------9------7-----------9-------7-|
A|-----7-9----7h9---9-----7-9-----7h9---|
E|-7------------------7-----------------|

G|--------------------------------------|
D|---------7----5-------------7---------|
A|-----5-7----7-----7-----5h7---7-------|
E|-5------------------5-----------5--6--|

G|--------------------------------------|
D|---------9----7-------------9-----7---|
A|-----7-9----9-----9-----7-9---7h9---9-|
E|-7------------------7-----------------|

G|--------------------------------------|
D|---------4----2----------4------------|
A|-----2-4----4---4----2h4---4----------|
E|-2----------------2-----------2--2-4-5|

G|--------------------------------------|
D|---------9----7-------------9-----7---|
A|-----7-9----9-----9-----7-9---7h9---9-|
E|-7------------------7-----------------|

G|------------------------------------|
D|---------7----5---------------------|
A|-----5-7----7---7-5-4-5-4---4-------|
E|-5------------------------5---2-4-5-|

G|--------------------------------------|
D|---------9----7-------------9-----7---|
A|-----7-9----9-----9-----7-9---7h9---9-|
E|-7------------------7-----------------|

G|--------------------------------------|
D|---------4----2----------4------------|
A|-----2-4----4---4----2h4---4----------|
E|-2----------------2-----------2--2-5-4|

Chorus:
G|--------------------------------------|
D|-4--------------4---2-----------2-----|
A|----4-------2h4-------2-------2-------|
E|------2-2----------------0-0----------|

G|-----4-4------4----------6-4------------|
D|---4------2h4---4----4h6-----7--6/7-6---|
A|-2----------------4---------------------|
E|----------------------------------------|

G|---------------------------------------|
D|-4--------------4---2------------2-----|
A|----4-------2h4-------2--------2-------|
E|------2-2---------------4-3-0----------|

                              not sure about this
G|-----4-4------4----------6-----3-------|
D|---4------2h4---4----4h6---3h4---????--|
A|-2----------------4--------------------|
E|---------------------------------------|

G|--------------------------------------|
D|-4--------------4---2-----------2-----|
A|----4-------2h4-------2-------2-------|
E|------2-2----------------0-0----------|

G|-----4-4------4----------6-4------------|
D|---4------2h4---4----4h6-----7--6/7-6---|
A|-2----------------4---------------------|
E|----------------------------------------|

G|---------------------------------------|
D|-4--------------4---2------------2-----|
A|----4-------2h4-------2--------2-------|
E|------2-2---------------4-3-0----------|

G|-----4-4------4----------6---4----------|
D|---4------2h4---4----4h6--------7-------|
A|-2----------------4---------------------|
E|----------------------------------------|

G|--------------------------------------|
D|-4------------4---2-------------2-----|
A|---4-4-----4--------2-2-------2-------|
E|-------2-2---------------0-0----------|

G|-------4-4----2----------6-------------11/14-13-11-|
D|---4-4------4---4----6-9---9-7-11---11-------------|
A|-2----------------4--------------------------------|
E|---------------------------------------------------|

Outro:
G|-11-11------------11----9---------------|
D|-------11----9/11----11----9-7-6-----4--|
A|----------9----------------------7------|
E|----------------------------------------|

G|-----4-4------2----------6--4-----------|
D|---4------2h4---4----4-6-------7-6------|
A|-2----------------4-----------------9---|
E|----------------------------------------|

tabbed by Francisco Barros (chanchofbp@hotmail.com)
comments and questions are welcomed.

_________________________________________________________________
     
Добавлено: 02.11.2013
Другие материалы по этой песне:
  • Аккорды и текст

Страница создана 15.10.2013
http://primanota.ru/chancho-en-piedra/da-la-claridad-chords.htm
Привет, Гость.
Предлагаем пройти революционный курс по гитаре.
Подарок от PrimaNota.Ru, забирай!