PrimaNota.ru - самый крупный в мире бесплатный архив песенных текстов, аккордов, табулатур и нот


Champion - The Decline - таба, видео

Регистрация Запомнить меня
Войти через:  Facebook Google Twitter Vk Yandex Mail.ru

Champion - The Decline - таба, видео

Печатать
Просмотров: 155
Уроки эстрадного вокала в Санкт-Петербурге
-------------------------------------------------------------------------------
			  THE DECLINE - Champion
-------------------------------------------------------------------------------

By: Mike Crucial www.myspace.com/mikecrucial

   Intro
E|-------|-------------------------------------------------------------------|
B|-------|-------------------------------------------------------------------|
G|--4-5--|--------------------------------------------------------5--7-7-----|
D|--4-5--|--2-2-2-2-2-2--5-5-5-5------------2-2-2-2-2-2--5-5-5-5--3--7-7-----|
A|--2-3--|--2-2-2-2-2-2-----------5-5-5-5---2-2-2-2-2-2--------------5-5-----|
E|-------|--0-0-0-0-0-0---------------------0-0-0-0-0-0----------------------|

E|------------------------------------------------------|---------------|-------------|
B|------------------------------------------------------|---------(x )--|-------------|
G|------------------------------------------------------|--5-4-5--------|-------------|
D|--2-2-2-2-2--5-5-5-5------------2-2-2-2-2-2--5-5-5-5--|--3-2-5--------|--2-2-2-2-2--|
A|--2-2-2-2-2-----------5-5-5-5---2-2-2-2-2-2-----------|------3--------|--2-2-2-2-2--|
E|--0-0-0-0-0---------------------0-0-0-0-0-0-----------|---------------|--0-0-0-0-0--|

			      Verse    
E|--------------------------|------------------------------------------------|
B|--------------------------|------------------------------------------------|
G|--------------------------|--9-9-9-9--------------5-5-5--4-4-4--7-7-7------|
D|--2-2-2--5-5-5--7-7-7--5--|--9-9-9-9--5-5-5--4-4--5-5-5--4-4-4--7-7-7------|
A|--------------------------|--7-7-7-7--------------3-3-3--2-2-2--5-5-5------|
E|--------------------------|------------------------------------------------|

						 Chorus/Outro
E|------------------------------------|--------|-----------------------------|
B|------------------------------------|--(x2)--|-----------------------------|
G|--9-9-9-9--------------7-7-7-7-7-7--|--------|--5-5-5-5--7-7-7-7--9--------|
D|--9-9-9-9--5-5-5--4-4--7-7-7-7-7-7--|--------|--5-5-5-5--7-7-7-7--9--2-2---|
A|--7-7-7-7--------------5-5-5-5-5-5--|--------|--3-3-3-3--5-5-5-5--7--2-2---|
E|------------------------------------|--------|-----------------------0-0---|

E|---------------------------------------------------------------------------|
B|---------------------------------------------------------------------------|
G|--9--------5-5-5-5--7-7-7-7--4-4-4-4-----------------5-5-5-5--7-7-7-7------|
D|--9--2-2---5-5-5-5--7-7-7-7--4-4-4-4--5-5-5--4-4-4---5-5-5-5--7-7-7-7------|
A|--7--2-2---3-3-3-3--5-5-5-5--2-2-2-2-----------------3-3-3-3--5-5-5-5------|
E|-----0-0-------------------------------------------------------------------|

E|------------------------------------------------2-0-0-3-0-0-0------19--------|
B|----------------------------------------------------------------------20-----|
G|--9-------9--------5-5-5-5--7-7-7-7-----4-5-------------------4-5--------19--|
D|--9--2-2--9--2-2---5-5-5-5--7-7-7-7--2--4-5--2----------------4-5------------|
A|--7--2-2--7--2-2---3-3-3-3--5-5-5-5--2--2-3--2----------------2-3------------|
E|-----0-0-----0-0---------------------0-------0-------------------------------|

E|-----------------------------------------------------------------------------||
B|-----------------------------------------------------------------------------||
G|-----------------4-5-5-5-5-5-5-5--------------------4-5----------------------||
D|--2-2-2-2-2-2-2--4-5-5-5-5-5-5-5---2-2-2-2-2-2-2-2--4-5----------------------||
A|--2-2-2-2-2-2-2--2-3-3-3-3-3-3-3---2-2-2-2-2-2-2-2--2-3----------------------||
E|--0-0-0-0-0-0-0--------------------0-0-0-0-0-0-0-0---------------------------||

=================================================================================
Добавлено: 11.03.2012
Другие материалы по этой песне:
  • Аккорды и текст

Страница создана 11.03.2012
http://primanota.ru/champion/the-decline-chords.htm
Привет, Гость.
Предлагаем пройти революционный курс по гитаре.
Подарок от PrimaNota.Ru, забирай!