PrimaNota.ru - самый крупный в мире бесплатный архив песенных текстов, аккордов, табулатур и нот


Champion - Different Directions - таба, видео

Регистрация Запомнить меня
Войти через:  Facebook Google Twitter Vk Yandex Mail.ru

Champion - Different Directions - таба, видео

Печатать
Просмотров: 139
Intro
Guitar 1 & 2
e----------------------------------------------------------------------------|
B----------------------------------------------------------------------------|
G--333--555------------------------------------------------------------------|
D--333--555--555~------------------------------------------------------------|
A--111--333--555~------------------------------------------------------------|
E------------333~------------------------------------------------------------|

Guitar 1
e----------------------------------------------------------------------------|
B----------------------------------------------------------------------------|
G-------3333-5555-7777-3333333-5555555---------------------------------------|
D--5555-3333-5555-7777-3333333-5555555---------------------------------------|
A--5555-1111-3333-5555-1111111-3333333---------------------------------------|
E--3333----------------------------------------------------------------------|

Guitar 1 & 2
e----------------------------------------------------------------------------|
B----------------------------------------------------------------------------|
G----------------------------------------------------------------------------|
D--5--8--10--12--555555-8----------------------------------------------------|
A--5--8--10--12--555555-8----------------------------------------------------|
E--3--6---8--10--333333-6----------------------------------------------------|

Verse
e--------------------------------------------------------|
B--------------------------------------------------------|
G--------------------------------------------------------| 3x
D--5555-8888-10101010-12121212-8888888-10101010101010----|
A--5555-8888-10101010-12121212-8888888-10101010101010----|
E--3333-6666--8-8-8-8-10101010-6666666--8-8-8-8-8-8-8----|

e-------------------------------------------------------------------|
B-------------------------------------------------------------------|
G-------------------------------------------------------------------|
D--5555-8888-10101010-12121212-131313131313-13---3-5--5--5--5-5-5-5-|
A--5555-8888-10101010-12121212-131313131313-13---3-5--5--5--5-5-5-5-|
E--3333-6666--8-8-8-8-10101010-111111111111-11---1-3--3--3--3-3-3-3-|

e--------------------------------------------------------|
B--------------------------------------------------------|
G--------------------------------------------------------| 3x
D--5555-8888-10101010-12121212-8888888-10101010101010----|
A--5555-8888-10101010-12121212-8888888-10101010101010----|
E--3333-6666--8-8-8-8-10101010-6666666--8-8-8-8-8-8-8----|

e----------------------------------------------------------------------------|
B----------------------------------------------------------------------------|
G----------------------------------------------------------------------------|
D--5555-8888-10101010-12121212-88888-10101010-121212121212121212121212-------|
A--5555-8888-10101010-12121212-88888-10101010-121212121212121212121212-------|
E--3333-6666--8-8-8-8-10101010-66666--8-8-8-8-101010101010101010101010-------|

Breakdown
e----------------------------------------------------------------------------|
B----------------------------------------------------------------------------|
G----------------------------------------------------------------------------|
D--8-7-8-8888888-3333333-5-5~---3-5------------------------------------------|
A--8-7-8-8888888-3333333-5-5~---3-5------------------------------------------|
E--6-5-5-6666666-1111111-3-3~---1-3------------------------------------------|

e-------------------------------------------------------------------|
B-------------------------------------------------------------------|
G-------------------------------------------------------------------| 4x
D--88888888-1010101010-10-8-3-5555555-3-55555555-8888888-1010101010-|
A--88888888-1010101010-10-8-3-5555555-3-55555555-8888888-1010101010-|
E--66666666--8-8-8-8-8--8-6-1-3333333-1-33333333-6666666--8-8-8-8-8-|

e----------------------------------------------------------------------------|
B----------------------------------------------------------------------------|
G----------------------------------------------------------------------------|
D--10-8-3-5~----3-5~--88888888-1010101010-10-8-3-5---------------------------|
A--10-8-3-5~----3-5~--88888888-1010101010-10-8-3-5---------------------------|
E---8-6-1-3~----1-3~--66666666--8-8-8-8-8--8-6-1-3---------------------------|

Outro

Guitar 1
e----------------------------------------------------------------------------|
B----------------------------------------------------------------------------|
G-------3333-5555-7777-3333333-5555555---------------------------------------|
D--5555-3333-5555-7777-3333333-5555555---------------------------------------|
A--5555-1111-3333-5555-1111111-3333333---------------------------------------|
E--3333----------------------------------------------------------------------|

Guitar 1 & 2
e----------------------------------------------------------------------------|
B----------------------------------------------------------------------------|
G----------------------------------------------------------------------------|
D--5-8-10-12-131313131313-13---3-5-------------------------------------------|
A--5-8-10-12-131313131313-13---3-5-------------------------------------------|
E--3-6--8-10-111111111111-11---1-3-------------------------------------------|
Добавлено: 24.02.2012
Другие материалы по этой песне:
  • Аккорды и текст

Страница создана 24.02.2012
http://primanota.ru/champion/different-directions-chords.htm
Привет, Гость.
Предлагаем пройти революционный курс по гитаре.
Подарок от PrimaNota.Ru, забирай!