PrimaNota.ru - самый крупный в мире бесплатный архив песенных текстов, аккордов, табулатур и нот


Champion - Decisions Made - бас-таба, видео

Регистрация Запомнить меня
Войти через:  Facebook Google Twitter Vk Yandex Mail.ru

Champion - Decisions Made - бас-таба, видео

Печатать
Просмотров: 118
Champion
"Decisions Made"

Intro
G---------------------------|
D---------------------------|
A-11111--1-3---3-5-3-5----5-|
E------------3--------------|

Verse
G-------------------------------|
D-------------------------------|
A--11-33----33-5555555555555555-|
E--------33---------------------|
                               x3
G--------------------------|
D--------------------------|
A--11-33----33-5-555-555-5-|
E--------33----------------|

Intro riff
G---------------------------|
D---------------------------|
A-11111--1-3---3-5-3-5----5-|
E------------3--------------|
                             x4

They're the best days of our lives
G------------------------------------------------------------|
D------------------------------------------------------------|
A--------3-5--------3-5-5555555555555555555555555555555-3-5--|
E------------------------------------------------------------|
Добавлено: 21.03.2012
Другие материалы по этой песне:
  • Аккорды и текст

Страница создана 21.03.2012
http://primanota.ru/champion/decisions-made-chords.htm
Привет, Гость.
Предлагаем пройти революционный курс по гитаре.
Подарок от PrimaNota.Ru, забирай!