PrimaNota.ru - самый крупный в мире бесплатный архив песенных текстов, аккордов, табулатур и нот


Champion - A Thank You Note - таба, видео

Регистрация Запомнить меня
Войти через:  Facebook Google Twitter Vk Yandex Mail.ru

Champion - A Thank You Note - таба, видео

Печатать
Просмотров: 116
-------------------------------------------------------------------------------
			 A THANK YOU NOTE - Champion
-------------------------------------------------------------------------------

By: Mike Crucial www.myspace.com/mikecrucial

            Pre-Verse/Verse
E|-----2--|------------------------------------------------------------------|
B|-----2--|------------------------------------------------------------(x )--|
G|-----3--|---------5-5-5----------5-4----------5-5-5--7-7-7-7-7-------------|
D|--4-----|--4-4-4--5-5-5---4-4-4--5-4---4-4-4--5-5-5--7-7-7-7-7-------------|
A|--4-----|--4-4-4--3-3-3---4-4-4--3-2---4-4-4--3-3-3--5-5-5-5-5-------------|
E|--2-----|--2-2-2----------2-2-2--------2-2-2-------------------------------|

   Chorus
E|---------------------------------------------------------------------------|
B|---------------------------------------------------------------------------|
G|--9-9-9-9--10-10-10-------------10-10-10-10-10-10-------------10-10-10-10--|
D|---------------------4-4-4-4-4---------------------4-4-4-4-4---------------|
A|--7-7-7-7--8--8--8---4-4-4-4-4--8--8--8--8--8--8---4-4-4-4-4--8--8--8--8---|
E|---------------------2-2-2-2-2---------------------2-2-2-2-2---------------|
				
						   Bridge	
E|-----------------------------------------------|----------|        |-------|
B|-----------------------------------------------|----------|        |-------|
G|--10--13--11-11-11-11--13---10-10-10-10-10-----|--5-4-----| Repeat |-------|
D|--------------------------------------------4--|--5-4--2--| Verse/ |--4----|
A|--8---11--9--9--9--9---11---8--8--8--8--8---4--|--3-2--2--| Chours |--4----|
E|--------------------------------------------2--|-------0--|        |--2----|

		    Break/Outro	
E|----------------|----------------------------------------------------------|
B|----------------|----------------------------------------------------(x3)--|
G|-----5-4--------|---------7-7-7--2-4-4-4--5-5------------------------------|
D|--4--5-4--2--4--|--4-4-4--7-7-7--2-4-4-4--5-5--4-4-4-4-4-4-4-4-------------|
A|--4--3-2--2--4--|--4-4-4--5-5-5--0/2-2-2--3-3--4-4-4-4-4-4-4-4-------------|
E|--2-------0--2--|--2-2-2-----------------------2-2-2-2-2-2-2-2-------------|

E|-------------------------------------------|-------------------------|-----||
B|------------------------------7-7-7-7-7-7--|-------------------(x )--|-----||
G|---------7-7-7--2-4-4-4--5-5---------------|-----7--2--4--5-5--------|-----||
D|--4-4-4--7-7-7--2-4-4-4--5-5--4-4-4-4-4-4--|--4--7--2--4--5-5--------|--4--||
A|--4-4-4--5-5-5--0/2-2-2--3-3---------------|--4--5--0--2--3-3--------|--4--||
E|--2-2-2------------------------------------|--2----------------------|--2--||

===============================================================================
Добавлено: 18.07.2012
Другие материалы по этой песне:
  • Аккорды и текст

Страница создана 18.07.2012
http://primanota.ru/champion/a-thank-you-note-chords.htm
Привет, Гость.
Предлагаем пройти революционный курс по гитаре.
Подарок от PrimaNota.Ru, забирай!