PrimaNota.ru - самый крупный в мире бесплатный архив песенных текстов, аккордов, табулатур и нот


Chamberlain - Street Singer - аккорды и текст, видео

Регистрация Запомнить меня
Войти через:  Facebook Google Twitter Vk Yandex Mail.ru

Chamberlain - Street Singer - аккорды и текст, видео

Печатать
Просмотров: 106
Street Singer
Chamberlain
Artist -  Chamberlain
Song - Street Singer
Album - Fates got a driver

Tabbed by James Dodd.

Not a massively comprehensive tab but it is the basis of the song.

Chords used

   c     f     g

g--------10----12-------
d--10----10----12-------
a--10-----8----10-------
e---8-------------------

To be honest you could use any c, f or g.
I just liked the sound of the high ones when
I was playing along.

Bass intro x4

e---------------------------------------
b---------------------------------------
g---------------------------------------
d-------2h3p2-5-------------------------
a---3-3---------------------------------
e---------------------------------------

Then the chords come in with medium distortion

Verse - 1

C
You've sirened you'r pride in

f
With banners.....

Chorus

g
you'r under....

f
could break in....

Back to verse. verse-2 same as verse 1.

Bridge. played 8 times I think

e--------------------------------------
b--------------------------------------
g------------0-------0-----------------
d------2h3p2-----2h3-------------------
a--3-3---------3-----------------------
e--------------------------------------

Verse-3

c			f
Dear Sovereign....	that passion

More steady guitar rhythm for the next bit of verse-3
c		f			g
You steel	Seasons....       Break	Silence

then it goes back to the intro but with drums as an interlude.
It sounds nice if you play along with the bass on the guitar but
palm muted quite heavily.

The there is another chorus which leads directly into the second
part of verse 3 "you steel meaning..etc" which in turn leads to the
final chorus.

cheers,

Jim.

j_j_dodd@hotmail.com for comments or complaints ideas modifications
or anything.

     
Добавлено: 04.08.2013
Другие материалы по этой песне:
  • Аккорды и текст

Страница создана 04.08.2013
http://primanota.ru/chamberlain/street-singer-chords.htm
Привет, Гость.
Предлагаем пройти революционный курс по гитаре.
Подарок от PrimaNota.Ru, забирай!