PrimaNota.ru - самый крупный в мире бесплатный архив песенных текстов, аккордов, табулатур и нот


Chamberlain - Lovely And Alone - аккорды и текст, видео

Регистрация Запомнить меня
Войти через:  Facebook Google Twitter Vk Yandex Mail.ru

Chamberlain - Lovely And Alone - аккорды и текст, видео

Печатать
Просмотров: 97
Lovely And Alone
Chamberlain
Artist-Chamberlain
Song-Lovely and Alone

Intro  G and C

e--------------------------------------
b--------------------------------------
g--------------------------------------
d-----5-5---5-5-5----------------------
a---5-3-3-5-3-3-3-5--------------------
e---3-----3-------3--------------------

Verse-

G  C  D  C

Bridge

C  D goes straight into this from the verse

chorus

G  C  D  C same chords as the verse but they are

picked as opposed to strummed.

The next bit is a little different, it starts off
like the riff but then it changes.
This is by no means an exact interpretation of this
section but it's a good start the main chord changes
are there but the not all of the little bits of lead.


  g c   g     f

e--------------------------------------
b--------------------------------------
g-----------------2-2------------------
d---5-5---3/5---------3----------------
a-5-3-3-5-----3-3-------3--------------
e-3-----3-----1-1---------3b4r3--------

  f			   g this g is strumed
			     fast and muted

e--------------------------------------
b--------------------------------------
g-----2-2-----3/5----------------------
d---------3---------5-5----12----------
a-3-3-------3-----5-3-3-5--10----------
e-1-1-------------3-----3--------------

e--------------------------------------
b--------------------------------------
g--------------------------------------
d---5-5---3/5--------------------------
a-5-3-3-5------------------------------
e-3-----3------------------------------


the chords to the next bit are different to
earlier on.

c  d  e  c

c  d stays on d for a while hear, when david sings
the line lovely but not alone.

then the chorus

g c d c gently picked but increasing in strength
untill it is fully strumed by the end.

Jim

j_j_dodd@hotmail.com

P.S.
sorry the solo section is a little sketchy, I'm pushed
for time today.
     
Добавлено: 22.07.2013
Другие материалы по этой песне:
  • Аккорды и текст

Страница создана 22.07.2013
http://primanota.ru/chamberlain/lovely-and-alone-chords.htm
Привет, Гость.
Предлагаем пройти революционный курс по гитаре.
Подарок от PrimaNota.Ru, забирай!