PrimaNota.ru - самый крупный в мире бесплатный архив песенных текстов, аккордов, табулатур и нот


Chamberlain - Five Year Diary - таба, видео

Регистрация Запомнить меня
Войти через:  Facebook Google Twitter Vk Yandex Mail.ru

Chamberlain - Five Year Diary - таба, видео

Печатать
Просмотров: 150
Artist - Chamberlain
Song - Five Year Diary

Intro Asus2

e------0-----------------------------
b------0-----------------------------
g------2-----------------------------
d------2-----------------------------
a------0-----------------------------
e------------------------------------

Verse

	A	Dsus2

e-------5---------5------------------
b-------5---------5------------------
g-------6---------7------------------
d-------7---------7------------------
a-------7---------5------------------
e-------5----------------------------

while these chords are being played there
is a riff in the background based around
the chords. Its a bit of a bugger

  A		  Dsus2
e--7---5--4---5----7---5--4---5------
b---5-5----5-5------5-5----5-5-------
g----6------6--------7------7--------
d-----------------0------0-----------
a-0------0---------------------------
e------------------------------------

Chorus


I'm the one who reached for love and missed


Can you come down to me

The Mellow bit in the middle is just the
the verse riff played clean which is
followed by the "We all dance when the
seasons chage part" which is the same
chords as the verse with a solo over the
top.
     
Добавлено: 05.10.2013
Другие материалы по этой песне:
  • Аккорды и текст

Страница создана 05.10.2013
http://primanota.ru/chamberlain/five-year-diary-chords.htm
Привет, Гость.
Предлагаем пройти революционный курс по гитаре.
Подарок от PrimaNota.Ru, забирай!