PrimaNota.ru - самый крупный в мире бесплатный архив песенных текстов, аккордов, табулатур и нот


Chakuza - Ich Lauf - таба, видео

Регистрация Запомнить меня
Войти через:  Facebook Google Twitter Vk Yandex Mail.ru

Chakuza - Ich Lauf - таба, видео

Печатать
Просмотров: 133
-------------------------------------------------------------------------------
                             CHAKUZA - Ich Lauf
-------------------------------------------------------------------------------
Tabbed by: denni159

Tuning: Standard CAPO 5. FRET


Am - Cadd9 - Em7- D


e|---------0----------------0----------------3----------------3------------------|
B|-----------1----------------1----------------3----------------3----------------|
G|-------------2----------------2----------------0----------------0--------------|
D|------2----------------2----------------2----------------2---------------------|
A|---0----------------0----------------3----------------3------------------------|
E|-------------------------------------------------------------------------------|


e|---------3----------------3----------------2h3p2--------------2h3p2------------|
B|-----------3----------------3--------------------3------------------3----------|
G|-------------0----------------0---------2------------------2-------------------|  
D|-------------------------------------0------------------0----------------------|  x3
A|------2----------------2-------------------------------------------------------|
E|---0----------------0----------------------------------------------------------|  


Viel Spaß mit meinem ersten Tab!
Habe es aus dem Lied rausgehört, und da es keinen richtigen Tab gab, war ich mal so nett :)
Добавлено: 17.06.2014
Другие материалы по этой песне:
  • Аккорды и текст

Страница создана 06.08.2013
http://primanota.ru/chakuza/ich-lauf-chords.htm
Привет, Гость.
Предлагаем пройти революционный курс по гитаре.
Подарок от PrimaNota.Ru, забирай!