PrimaNota.ru - самый крупный в мире бесплатный архив песенных текстов, аккордов, табулатур и нот


Chain - Black And Blue - аккорды и текст, видео

Регистрация Запомнить меня
Войти через:  Facebook Google Twitter Vk Yandex Mail.ru

Chain - Black And Blue - аккорды и текст, видео

Печатать
Просмотров: 159
Black And Blue
Chain
Black  and  Blue

------------------------------------------------------------|
------------------------------------------------------------|
------------------------------------------------------------|
------5--3---3--------------------------5--3-----3--5-------|
-----------5---5--3--5--3---------------------5-------------|
-3-3-----------------------6--3--3--------------------------|x2


    G                       Bb         C    G  G     F   G
You work me so hard that my backs near broke - we're groanin'.
   G                  Bb         C    G  G     F   G
My brow is wet and my throat's a choke - we're groanin'.
    G                Bb       C    G  G     F   G
You send me here for ten long years - we're groanin'.
  G                    Bb      C   G  G     F   G
I miss my whisky and I miss my beer - we're groanin'.
      G                  Bb         C   G  G     F   G
Ain't seen a gal since I don't know when - we're groanin'.
        G                       Bb       C   G  G     F   G
And the way you treat me, won't see one again - we're groanin'.


    G                      Bb        C    G  G     F   G
You broke my head 'cause I spat on a guard - we're groanin'.
     G                        Bb              C   G  G     F   G
Sure don't make me no better, it just make me hard - we're groanin'.
     G                      Bb           C  G  G     F   G
Your water stinks 'cause it comes from a bog - we're groanin'.
         G                       Bb        C  G  G     F   G
And that slop you feed us, ain't fit for a dog - we're groanin'.


             C                                D
Well you can tease me and try to break me and still I'll spit at you.
       Eb                                  D
You'll never break my spirit, even when my body's black and blue.

------------------------------------------------------------|
------------------------------------------------------------|
------------------------------------------------------------|
------5--3---3---------------------5--3-----3--5------------|
-----------5---5--3--5--3----------------5------------------|
-3-3-----------------------6--3--3--------------------------|x2

------------------------------------------------------------|
------------------------------------------------------------|
------5--3---3---------------------5--3-----3--5------------|
-----------5---5--3--5--3----------------5------------------|
-3-3-----------------------6--3--3--------------------------|
------------------------------------------------------------|

------------------------------------------------------------|
------------------------------------------------------------|
------------------------------------------------------------|
------5--3---3---------------------5--3-----3--5------------|
-----------5---5--3--5--3----------------5------------------|
-3-3-----------------------6--3--3--------------------------|

C / D / Eb / D

     G                   Bb       C   G  G     F   G
Well in my arm there's a dreadful pain - we're groanin'.
     G                          Bb       C    G  G     F   G
It's hard diggin ditches with a ball and chain - we're groanin'.
    G                Bb       C    G  G     F   G
You send me here for ten long years - we're groanin'.
  G                    Bb      C   G  G     F   G
I miss my whisky and I miss my beer - we're groanin'.


    G                      Bb        C    G  G     F   G
You broke my head 'cause I spat on a guard - we're groanin'.
     G                        Bb              C   G  G     F   G
Sure don't make me no better, it just make me hard - we're groanin'.
     G                      Bb           C  G  G     F   G
Your water stinks 'cause it comes from a bog - we're groanin'.
         G                       Bb        C  G  G     F   G
And that slop you feed us, ain't fit for a dog - we're groanin'.


             C                                D
Well you can tease me and try to break me and still I'll spit at you.
       Eb                                  D
You'll never break my spirit, even when my body's black and blue.

------------------------------------------------------------|
------------------------------------------------------------|
------------------------------------------------------------|
------5--3---3---------------------5--3-----3--5------------|
-----------5---5--3--5--3----------------5------------------|
-3-3-----------------------6--3--3--------------------------|

------------------------------------------------------------|
------------------------------------------------------------|
------------------------------------------------------------|
------5--3---3----------------------------------------------|
-----------5---5--3--5--3-----------------------------------|
-3-3-----------------------6--3--1--1--1--1--2--3-----------|


I've always liked this song but I've never seen an easy or full
version to play on an acoustic so here's my go at it. For me, it 
sings/plays better if you use barre chords for most of the song.
Hope you like this rendition of a truly GREAT song. Matt Taylor 
rules. Enjoy!         http://www.youtube.com/watch?v=MLkU-FjWx7U
Добавлено: 26.10.2013
Другие материалы по этой песне:
  • Аккорды и текст

Страница создана 02.06.2013
http://primanota.ru/chain/black-and-blue-chords.htm
Привет, Гость.
Предлагаем пройти революционный курс по гитаре.
Подарок от PrimaNota.Ru, забирай!