PrimaNota.ru - самый крупный в мире бесплатный архив песенных текстов, аккордов, табулатур и нот


Чайковский Пётр Ильич - Щелкунчик, Танец феи Драже. Ор. 71 - аккорды и текст, видео

Регистрация Запомнить меня
Войти через:  Facebook Google Twitter Vk Yandex Mail.ru

Чайковский Пётр Ильич - Щелкунчик, Танец феи Драже. Ор. 71 - аккорды и текст, видео

Печатать
Просмотров: 351
Щелкунчик, Танец феи Драже. Ор. 71
Чайковский Пётр Ильич
Размер: 4/4

      Dm           Gm6  C#o  Do   Co        Bo        Bbo
e|--------1-----1------|------------------|--------------------|
b|-----------3------5--|--2---3---4--4--4-|-3--3--3---2--2--2--|
g|@-------2------------|--3---4---5--5--5-|-4--4--4---3--3--3--|
D|@---0---------0------|--2---3---4--4--4-|-3--3--3---2--2--2--|
A|---------------------|------------------|--------------------|
E|------------------3--|------------------|--------------------|

   Dm    Gm    Dm            Bb7               Bbo Dm  Fo
e|-------------------------|----------------0-|-6--5---1--1--1-|
b|----3-----3--------------|-----6---3---6----|-5--6---0--0--0-|
g|-2-----3-----2-----------|------------------|-6--7---1--1--1-|
D|-0-----------0-----------|------------------|-5--7---0--0--0-|
A|-----------------5-3-----|------------------|----5-----------|
E|-------3-------------6-5-|-4---4-------4----|----------------|

   Am        E7          A     Bb    A
e|-0--0--0------------|-----0-----0----------------|
b|-1--1--1---3--3--3--|--2-----3-----2-------------|
g|-2--2--2---1--1--1--|--2-----3-----2--2-p0-------|
D|-2--2--2------------|--2-----3-----2--------3-p2-|
A|-----------2--2--2--|----------------------------|
E|-----------0--0--0--|----------------------------|

   Dm           Gm6  C#o  Do   Co        Bo        Bbo
e|-----1-----1------|------------------|--------------------|
b|--------3------5--|--2---3---4--4--4-|-3--3--3---2--2--2--|
g|-----2------------|--3---4---5--5--5-|-4--4--4---3--3--3--|
D|-0---------0------|--2---3---4--4--4-|-3--3--3---2--2--2--|
A|------------------|------------------|--------------------|
E|---------------3--|------------------|--------------------|

   Dm    Gm    Dm        E7             A   D7            G
e|-----------------1---|------------------|-----------------|
b|----3-----3------3---|------3--0--3---2-|-----1-----1---0-|
g|-2-----3-----2---2---|----------------2-|--------2------0-|
D|-0-----------0---0---|----------------2-|-0---0-----0---0-|
A|---------------------|----------------0-|-----------------|
E|-------3-------------|--0---0-----0-----|---------------3-|

   C7            F    Dm       A            Dm    A      Dm
e|------------------|----------------5-|------------5-|-----|
b|------------------|--------6-----5---|----------5---|-----|
g|-----3--0--3---2--|------7-----6----@|----7-----6---|--7--|
D|-----2-----2---3--|----7------------@|----7-----7---|--7--|
A|-3---3-----3---3--|--5---------------|----5-----7---|--5--|
E|---------------1--|----------5-------|--------------|-----|
Добавлено: 01.09.2013
Другие материалы по этой песне:
  • Аккорды и текст

Страница создана 01.09.2013
http://primanota.ru/chaikovskii-petr-ilich/shhelkunchik-tanec-fei-drazhe-or-71-chords.htm
Привет, Гость.
Предлагаем пройти революционный курс по гитаре.
Подарок от PrimaNota.Ru, забирай!