PrimaNota.ru - самый крупный в мире бесплатный архив песенных текстов, аккордов, табулатур и нот


Чайф - Ой-йо - аккорды и текст, видео

Регистрация Запомнить меня
Войти через:  Facebook Google Twitter Vk Yandex Mail.ru

Чайф - Ой-йо - аккорды и текст, видео

Печатать
Просмотров: 850
Ой-йо
Чайф
Это мой способ играть эту песню. Он не является особо правильным,
мне просто нравится, как это звучит.

5h6  --- хаммер
7p5  --- пул
6/7  --- слайд (в данном отрывке это короткие форшлаги)
7~~~ --- вибрато
^7   --- микротоновой (1/4 тона) пребэнд
7^(9)===(7)  --- бэнд на тон, подержать, опустить;)

Intro:
e-|-------------------------------------------------------------------
B-|-5h6h8~~~6-5------7/8~~~--------------6~---------------------------
G-|--------------6/7~~~------^7-5~~~-5h7-----5-7-(7)^(9)~~~(7)p5-4h5~
D-|----------------------------------------7--------------------------
     

Chords:
  C        x32010
  G        320033
  Am       x02210
  Asus2    x02200
  F7M      xx3210
  F7M/C    x33210
  G6       xx5430
  G6/D     x55430

C                 G             Am  Asus2 Am F7M  
От старых друзей весточки нет грустно
C         G                Am Asus2 Am  F7M    G6
А на душе от свежих газет пусто
C              G        Am  Asus2 Am F7M  
И от несвежих невелика потеха
C              G                Am Asus2 Am F7M    G6
Правда вот был армейский дружок уехал

Припев:
  C      G      Am     F7M    G6
  Ой-йо, ой-йо, ой-йо
  C      G      Am     F7M    G6
  Ой-йо, ой-йо, ой-йо

Запил сосед у них на фабрике стачка
С чаем беда осталась одна пачка
На кухне записка не спи останусь у Гали
По телеку рядятся как дальше жить достали

Припев

Скорей бы лед стал пошел бы тогда на рыбалку
Чего бы поймал соседям раздал не жалко
Луна появилась и лезет настырно все выше и выше
Сечас со всей мочи завою с тоски никто не услышит

  C      G      Am     F7M/C    G6/D
  Ой-йо, ой-йо, ой-йо никто не  услышит
  C      G      Am     F7M/C    G6/D
  Ой-йо, ой-йо, ой-йо никто не  услышит

(Последний куплет играется очень жестким боем, вместо 
F7M   и G6 берутся F7M/C   и G6/D соответственно).

Outro:
e-|-------------------------------------------------------------------------------
B-|-5h6h8~~~6-5------7/8~~~--------------6~---------------------------------------
G-|--------------6/7~~~------^7-5~~~-5h7-----5-7-(7)^(9)~~~---5-7^(9)~7-5-4-(4)h5
D-|----------------------------------------7----------------7---------------------
(что-то типа этого, а в принципе играется по настроению;)

P.S. sorry за знаки препинания


Добавлено: 09.11.2013
Другие материалы по этой песне:
  • Аккорды и текст

Страница создана 13.08.2013
http://primanota.ru/chaif-2/oi-io-chords.htm
Привет, Гость.
Предлагаем пройти революционный курс по гитаре.
Подарок от PrimaNota.Ru, забирай!