PrimaNota.ru - самый крупный в мире бесплатный архив песенных текстов, аккордов, табулатур и нот


Чайф - 17 Let - бас-таба, видео

Регистрация Запомнить меня
Войти через:  Facebook Google Twitter Vk Yandex Mail.ru

Чайф - 17 Let - бас-таба, видео

Печатать
Просмотров: 757
Уроки эстрадного вокала в Санкт-Петербурге
-------------------------------------------------------------------------------
                             17 Let - Chaif (17 лет - Чайф)
-------------------------------------------------------------------------------
Tabbed by: zharkov83

Tuning: Standart

Intro
G|---------------------------------------------------------------------------|
D|---------------------------------------------2---3-35-5--------------------|
A|-----------------------------------3-3--320-0-0--------3--3-023--3--2------|
E|88888888666666665555555544444444------3--------------------3---------------|

Verse
G|------------------------------------------------------------------------------------------------|
D|------------------------------------------------------------------------------------/10-9-------|
A|-----7-----------3----------5-----3--3-3-2--------7----------3-----------2-5-3---3--------------|
E|5--5---5----1--1---1---3--3---3--------------5--5---5---1--1---1---3--3-------------------------|

G|------------------------------------------------------------------------------------------2-4-5-|
D|------------------------------------------------------------------------------------2-4-5-------|
A|-----------------3----------5-----3--3-3-2-------------------3-----------2-5--2-3-5-------------|
E|5--5-0-5----1--1---1---3--3---3--------------5--5-0-5---1--1---1---3--3-------------------------|

Chorus
G|-----------------------------------------------------------------------------5-7-8----|
D|--------------------------------------------------------2----3--3---3--/6--6----------|
A|----------------------------------------3--3---3-2-0--0---0-------3-------------------|
E|8--8-8--8-6--6-6--6-5--5-5--5-4--4-4--4------3----------------------------------------|

G|--------------------------------------------------------------------------------------|
D|--------------------------------------------------------------------------------------|
A|----------------------------------------3--3---0-2-3---3--2---------------------------|
E|8--8-8--8-6--6-6--6-5--5-5--5-4--4-3--3------3----------------------------------------|


| /  slide up
| \  slide down
| h  hammer-on
| p  pull-off
| ~  vibrato
| +  harmonic
| x  Mute note
===============================================================================
Добавлено: 09.06.2015
Другие материалы по этой песне:
  • Аккорды и текст

Страница создана 09.06.2015
http://primanota.ru/chaif-2/17-let-2-chords.htm
Привет, Гость.
Предлагаем пройти революционный курс по гитаре.
Подарок от PrimaNota.Ru, забирай!