PrimaNota.ru - самый крупный в мире бесплатный архив песенных текстов, аккордов, табулатур и нот


Chad Vangaalen - No Panic No Heat - таба, видео

Регистрация Запомнить меня
Войти через:  Facebook Google Twitter Vk Yandex Mail.ru

Chad Vangaalen - No Panic No Heat - таба, видео

Печатать
Просмотров: 110
Artist: Chad VanGaalen
Album: Diaper Island
Song: No Panic/No Heat
Tabbed by smokestack93
Reach me at: smokestacklightning1993@gmail.com

----------------------------------------------------------------------------

This has mostly been tabbed based on a combination of the two live videos of this song.
The tuning was weird, but the first four strings are mostly all he uses.  The only
really weird bit was the chorus, which I have mostly right, but seems to be missing 
something.  If you have any suggestions, please either comment or send me a message.  On a related
note, I wish there would be more Chad VanGaalen tabs out there, if someone could do 
either Peace is on the Rise or Wandering Spirits, I would be eternally grateful.

And, on to the tab...

----------------------------------------------------------------------------
**TUNING IS CRITICAL***
Tuning (low-to-high): GCEABE


INTRO:

E--------------------------------------------------------------------------|
B--------------------------------------------------------------------------|
A--------------------------------------------------------------------------|
E--5-----5-----5-----5-----5-----5-----6-----6-----6-----6-----6-----6-----|
C----5-----5-----5-----5-----5-----5-----7-----7-----7-----7-----7-----7---|
G------5-----5-----5-----5-----5-----5-----7-----7-----7-----7-----7-----7-|

E--------------------------------------------------------------------------|
B--------------------------------------------------------------------------|
A--------------------------------------------------------------------------|
E--3-----3-----3-----1-----1-----1-----3-----3-----3-----5-----5-----5-----|
C----4-----4-----4-----2-----2-----2-----4-----4-----4-----5-----5-----5---|
G------5-----5-----5-----3-----3-----3-----5-----5-----5-----5-----5-----5-|

VERSE 1:

   Wait              a second,        for me,            lover

E--------------------------------------------------------------------------|
B--------------------------------------------------------------------------|
A--------------------------------------------------------------------------|
E--5-----5-----5-----5-----5-----5-----6-----6-----6-----6-----6-----6-----|
C----5-----5-----5-----5-----5-----5-----7-----7-----7-----7-----7-----7---|
G------5-----5-----5-----5-----5-----5-----7-----7-----7-----7-----7-----7-|

  Cos I'll          be taking          my sweet          time

E--------------------------------------------------------------------------|
B--------------------------------------------------------------------------|
A--------------------------------------------------------------------------|
E--3-----3-----3-----1-----1-----1-----3-----3-----3-----5-----5-----5-----|
C----4-----4-----4-----2-----2-----2-----4-----4-----4-----5-----5-----5---|
G------5-----5-----5-----3-----3-----3-----5-----5-----5-----5-----5-----5-|

   Rolling          softly,        across            the meadow,

E--------------------------------------------------------------------------|
B--------------------------------------------------------------------------|
A--------------------------------------------------------------------------|
E--5-----5-----5-----5-----5-----5-----6-----6-----6-----6-----6-----6-----|
C----5-----5-----5-----5-----5-----5-----7-----7-----7-----7-----7-----7---|
G------5-----5-----5-----5-----5-----5-----7-----7-----7-----7-----7-----7-|

  Dragging          my broken          pieces          behind me

E--------------------------------------------------------------------------|
B--------------------------------------------------------------------------|
A--------------------------------------------------------------------------|
E--3-----3-----3-----1-----1-----1-----3-----3-----3-----5-----5-----5-----|
C----4-----4-----4-----2-----2-----2-----4-----4-----4-----5-----5-----5---|
G------5-----5-----5-----3-----3-----3-----5-----5-----5-----5-----5-----5-|

CHORUS:
Played twice


(only play first time)
E--------------------|
B--------------------|
A--------------------|
E--5-----5-----5-----|
C----5-----5-----5---|
G------5-----5-----5-|

 How long have you been running

E-------------------------------|
B-------------------------------|
A-7-7-7-7-7-7-7---7-7-7-7-7-7-7-|
E-5-5-5-5-5-5-5---5-5-5-5-5-5-5-|
C-x-x-x-x-x-x-x---x-x-x-x-x-x-x-|
G-7-7-7-7-7-7-7---7-7-7-7-7-7-7-|

 With feet made of stone

E----------------------------------------------|
B----------------------------------------------|
A-10-10-10-10-10-10-10---10-10-10-10-10-10-10--|
E-8--8--8--8--8--8--8----8--8--8--8--8--8--8---|
C-x--x--x--x--x--x--x----x--x--x--x--x--x--x---|
G-10-10-10-10-10-10-10---10-10-10-10-10-10-10--|

VERSE 2:

  Rain              is falling,        So slow            and mellow

E--------------------------------------------------------------------------|
B--------------------------------------------------------------------------|
A-/5-----5-----5-----5-----5-----5-----7-----7-----7-----7-----7-----7-----|
E-/5-----5-----5-----5-----5-----5-----6-----6-----6-----6-----6-----6-----|
C----5-----5-----5-----5-----5-----5-----7-----7-----7-----7-----7-----7---|
G------5-----5-----5-----5-----5-----5-----7-----7-----7-----7-----7-----7-|

  Washing         the panic          of heat           from my skin

E--------------------------------------------------------------------------|
B--------------------------------------------------------------------------|
A--------------------------------------------------------------------------|
E--3-----3-----3-----1-----1-----1-----3-----3-----3-----5-----5-----5-----|
C----4-----4-----4-----2-----2-----2-----4-----4-----4-----5-----5-----5---|
G------5-----5-----5-----3-----3-----3-----5-----5-----5-----5-----5-----5-|

   Healing          water,         come flood           this valley,

E--------------------------------------------------------------------------|
B--------------------------------------------------------------------------|
A--5-----5-----5-----5-----5-----5-----7-----7-----7-----7-----7-----7-----|
E--5-----5-----5-----5-----5-----5-----6-----6-----6-----6-----6-----6-----|
C----5-----5-----5-----5-----5-----5-----7-----7-----7-----7-----7-----7---|
G------5-----5-----5-----5-----5-----5-----7-----7-----7-----7-----7-----7-|

  Carry              our houses        like ships to the sea

E--------------------------------------------------------------------------|
B--------------------------------------------------------------------------|
A--------------------------------------------------------5-----5-----5-----|
E--3-----3-----3-----1-----1-----1-----3-----3-----3-----5-----5-----5-----|
C----4-----4-----4-----2-----2-----2-----4-----4-----4-----5-----5-----5---|
G------5-----5-----5-----3-----3-----3-----5-----5-----5-----5-----5-----5-|

CHORUS 2

INTERLUDE
The pattern here is mostly the same, but there are some subtle variations on the
strumming.  In total, I think it's played around 11x.


E------------------------------------|
B------------------------------------|
A-5-5-5-5-5-5-5-5-5-5-5-5-5-5-5-5-5-5|
E-6-6-6-6-6-6-6-6-6-6-6-6-6-6-6-6-6-6|
C-x-x-x-x-x-x-x-x-x-x-x-x-x-x-x-x-x-x|
G-3-3-3-3-3-3-3-3-3-3-3-3-3-3-3-3-3-3|

E------------------------------------|
B------------------------------------|
A-5-----5-----5-----5-5-5-5-5-5-5-5-5|
E-6-----6-----6-----6-6-6-6-6-6-6-6-6|
C-x-----x-----x-----x-x-x-x-x-x-x-x-x|
G-7-----7-----7-----7-7-7-7-7-7-7-7-7|

VERSE 3

  Wait               a second,        for me            lover

E--------------------------------------------------------------------------|
B--------------------------------------------------------------------------|
A--------------------------------------------------------------------------|
E--5-----5-----5-----5-----5-----5-----6-----6-----6-----6-----6-----6-----|
C----5-----5-----5-----5-----5-----5-----7-----7-----7-----7-----7-----7---|
G------5-----5-----5-----5-----5-----5-----7-----7-----7-----7-----7-----7-|

  Cos I'll          be taking          my sweet time

E--------------------------------------------------------------------------|
B--------------------------------------------------------------------------|
A--------------------------------------------------------------------------|
E--3-----3-----3-----1-----1-----1-----3-----3-----3-----5-----5-----5-----|
C----4-----4-----4-----2-----2-----2-----4-----4-----4-----5-----5-----5---|
G------5-----5-----5-----3-----3-----3-----5-----5-----5-----5-----5-----5-|

   Rolling softly,                    across the meadow,

E--------------------------------------------------------------------------|
B--------------------------------------------------------------------------|
A--------------------------------------------------------------------------|
E--5-----5-----5-----5-----5-----5-----6-----6-----6-----6-----6-----6-----|
C----5-----5-----5-----5-----5-----5-----7-----7-----7-----7-----7-----7---|
G------5-----5-----5-----5-----5-----5-----7-----7-----7-----7-----7-----7-|

  Dragging           my broken         pieces            behind me

E--------------------------------------------------------------------------|
B--------------------------------------------------------------------------|
A--------------------------------------------------------------------------|
E--3-----3-----3-----1-----1-----1-----3-----3-----3-----5-----5-----5-----|
C----4-----4-----4-----2-----2-----2-----4-----4-----4-----5-----5-----5---|
G------5-----5-----5-----3-----3-----3-----5-----5-----5-----5-----5-----5-|


Then, just strum this once, and you're done
E------|
B------|
A---5--|
E---5--|
C---5--|
G---5--|

Please rate and give feedback!
Добавлено: 19.09.2013
Другие материалы по этой песне:
  • Аккорды и текст

Страница создана 19.09.2013
http://primanota.ru/chad-vangaalen/no-panic-no-heat-chords.htm
Привет, Гость.
Предлагаем пройти революционный курс по гитаре.
Подарок от PrimaNota.Ru, забирай!