PrimaNota.ru - самый крупный в мире бесплатный архив песенных текстов, аккордов, табулатур и нот


Chad Vangaalen - Frozen Paradise - таба, видео

Регистрация Запомнить меня
Войти через:  Facebook Google Twitter Vk Yandex Mail.ru

Chad Vangaalen - Frozen Paradise - таба, видео

Печатать
Просмотров: 55
-------------------------------------------------------------------------------
                            Frozen Paradise - Chad Vangaalen
-------------------------------------------------------------------------------

Tuning: Standard


Intro = F C A# A# C X2

(then over those chords twice more)

e|-------------------------------------------------------------------|-(first time-|
B|-------------------------------------------------------------------|------only)--|
G|--------------------------------------------10-9-10-10/15-14-12-9~~|-(7h5)-------|
D|----------------------------10-8-7-8-10-12~------------------------|-------------|
A|-10-8-7-8-8/12-10-12/13-12-----------------------------------------|-------------|
E|-------------------------------------------------------------------|-------------|

F                                C             A#              
looking at you i can tell that you're already bored
A#                 C
let's go back to myself
A#                 C
instead of raising hell
F                                C          A#   
i've got lots of living memories at home on ice
A#                 C
yeah i'll pick something nice
A#             C
a frozen paradise
F                            C             A#
perfect looking humanoids we're all that remains
A#            C
identically insane
A#                 C
our rotting little brains

(the guitar playing here sounds fairly minimal, most of the instrumentation is coming 
from the synth and background vocals, so I just play single notes, 8th and 6th fret on the A string)

F
find the bug
F          
scramble the code
F      D#
i can tell it all
F
like a drug
F      
scrambled down
F      D#
i can tell it all

F C A# A# C

F                             C                 A#              
maybe we can go where people live inside their dreams
A#             C
smoke a cigarette
A#             C
like on magazines
F                                C            A#              
my implant is wearing thin oh i can feel it fade
A#                 C
memories are slaves
F                                C             A#              
so c'mon c'mon lets get high on other people's dreams
A#                C
as sad as it may seem
A#                     C
we're floating in between it

F C A# A# C X2

(then over those chords 2 times more)

e|-------------------------------------------------------------------|-(first time-|
B|-------------------------------------------------------------------|------only)--|
G|--------------------------------------------10-9-10-10/15-14-12-9~~|-(7h5)-------|
D|----------------------------10-8-7-8-10-12~------------------------|-------------|
A|-10-8-7-8-8/12-10-12/13-12-----------------------------------------|-------------|
E|-------------------------------------------------------------------|-------------|


************************************

| /   slide up
| \   slide down
| h   hammer-on
| p   pull-off
| ~   vibrato
| +   harmonic
| x   Mute note
| b   Bend
| pb  Pre-bend
| br  Bend release
| pbr Pre-bend release
| brb Bend release bend

************************************
Добавлено: 11.06.2016
Другие материалы по этой песне:
  • Аккорды и текст

Страница создана 11.06.2016
http://primanota.ru/chad-vangaalen/frozen-paradise-chords.htm
Привет, Гость.
Предлагаем пройти революционный курс по гитаре.
Подарок от PrimaNota.Ru, забирай!