PrimaNota.ru - самый крупный в мире бесплатный архив песенных текстов, аккордов, табулатур и нот


Chad Pab - Threnody - таба, видео

Регистрация Запомнить меня
Войти через:  Facebook Google Twitter Vk Yandex Mail.ru

Chad Pab - Threnody - таба, видео

Печатать
Просмотров: 75
-------------------------------------------------------------------------------
                             Threnody - Chad Pab
-------------------------------------------------------------------------------
Tabbed by:Chad Pab
E-mail: chad.pab@gmail.com

Tuning: Standard


Intro
e|---------------------------------------------------------------------------|
B|-------0-----------0-----------0----------0--------------------------------|
G|-----4---4-------4---4-------4---4------0---0------------------------------|
D|---0-------0---0-------0---0-------0--4-------4----------------------------|
A|-7-----------7-----------7-----------7-------------------------------------|
E|-0-------------------------------------------------------------------------|

e|---------------------------------------------------------------------------|
B|---------------------------------------------------------------------------|
G|-----2-----------2-----------2-----------2---------------------------------|
D|---0---0-------0---0-------0---0-------0---0-------------------------------|
A|-3-------3---3-------3---3-------3---3-------3-----------------------------|
E|-----------0-----------0-----------0---------------------------------------|

e|---------------------------------------------------------------------------|
B|-------0-----------0-----------0----------0--------------------------------|
G|-----4---4-------4---4-------4---4------0---0------------------------------|
D|---0-------0---0-------0---0-------0--4-------4----------------------------|
A|-7-----------7-----------7-----------7-------------------------------------|
E|-0-------------------------------------------------------------------------|

e|---------------------------------------------------------------------------|
B|---------------------------------------------------------------------------|
G|-----2-----------2-----------2-----------2---------------------------------|
D|---0---0-------0---0-------0---0-------0---0-------------------------------|
A|-3-------3---3-------3---3-------3---3-------3-----------------------------|
E|-----------0-----------0-----------0---------------------------------------|

e|-3-----3-----5-----5-----7-----7------0------------------------------------|
B|---0-----0-----0-----0-----0-----0----5------------------------------------|
G|-----0-----0-----0-----0-----0-----0--5------------------------------------|
D|-2-----2-----0-----0-----5-----5-------------------------------------------|
A|---------------------------------------------------------------------------|
E|---------------------------------------------------------------------------|

e|-3-----3-----5-----5-----7-----10\\\----0----------------------------------|
B|---0-----0-----0-----0-----0------------5----------------------------------|
G|-----0-----0-----0-----0-----0----------5----------------------------------|
D|-2-----2-----0-----0-----5-----5-------------------------------------------|
A|---------------------------------------------------------------------------|
E|---------------------------------------------------------------------------|

Repeat intro then go to:

e|-10-----10-----8-----0-----------------------------------------------------|
B|----0------0------3--------------------------------------------------------|
G|------0------0-------------------------------------------------------------|
D|--9------9-----9-----------------------------------------------------------|
A|------------------2--------------------------------------------------------|
E|---------------------0-----------------------------------------------------|

Verse:

  Senses 
  Chill       with         the wind
  Singing
  Our own       Thren-      ody

e|---------------------------------------------------------------------------|
B|-------0-----------3-----------0-------------------------------------------|
G|-----0---0-------0---0-------0---0--------0---0----------------------------|
D|---4-------4---4-------4---4-------4----2-------2--------------------------|
A|--------------------------------------4-----3------------------------------|
E|-0-----------0-----------0-------------------------------------------------|

Pre-Chorus
e|---------------------------------------------------------------------------|
B|-------3-----------3-----------3-----------3-------------------------------|
G|-----0---0-------0---0-------0---0-------0---0-----------------------------|
D|---2-------2---2-------2---2-------2---2-------2---------------------------|
A|-1-----------1-----------3-----------3-------------------------------------|
E|---------------------------------------------------------------------------|

e|---------------------------------------------------------------------------|
B|-------3-----------3-----------3-----------3-------------------------------|
G|-----0---0-------0---0-------0---0-------0---0-----------------------------|
D|---4-------4---4-------4---4-------4---4-------4---------------------------|
A|-5-----------5-----------5-----------5-------------------------------------|
E|---------------------------------------------------------------------------|

  
Chorus:
  
   Gloom of the past years
   
e|-7-----7-----5-----7-----0-----0-----0-----0-------------------------------|
B|---0-----0-----0-----0-----5-----5-----5-----5-----------------------------|
G|-----0-----0-----0-----0-----0-----0-----0-----0---------------------------|
D|-------------------------2-----2-----2-----2-------------------------------|
A|-7-----7-----7-----7-------------------------------------------------------|
E|---------------------------------------------------------------------------|

  Sigh at whats to come

e|-7-----7-----5-----7-----5-----5-----5-----5-------------------------------|
B|---0-----0-----0-----0-----0-----0-----0-----0-----------------------------|
G|-----0-----0-----0-----0-----0-----0-----0-----0---------------------------|
D|-------------------------2-----2-----2-----2-------------------------------|
A|-7-----7-----7-----7-------------------------------------------------------|
E|---------------------------------------------------------------------------|

   Frost blankets the morning

e|-7-----7-----5-----7-----0-----0-----0-----0-------------------------------|
B|---0-----0-----0-----0-----5-----5-----5-----5-----------------------------|
G|-----0-----0-----0-----0-----0-----0-----0-----0---------------------------|
D|-------------------------2-----2-----2-----2-------------------------------|
A|-7-----7-----7-----7-------------------------------------------------------|
E|---------------------------------------------------------------------------|

  The Autumn leaves glow

e|-7-----7-----5-----7-----5-----5-----5-----5-------------------------------|
B|---0-----0-----0-----0-----0-----0-----0-----------------------------------|
G|-----0-----0-----0-----0-----0-----0-----0---------------------------------|
D|-------------------------2-----2-----2-----2p0-----------------------------|
A|-7-----7-----7-----7---------------------------2---------------------------|
E|---------------------------------------------------------------------------|

Interlude:
e|---------------------------------------------------------------------------|
B|-------1-----------1-----------1-----------1-----0-----0-----0-----0-------|
G|-----2---2-------2---2-------2---2-------2---2-----2-----2-----2-----2-----|
D|---2-------2---2-------2---2-------2---2-------2-----2-----2-----2-----2---|
A|-3-----------3-----------0-----------0-------------------------------------|
E|---------------------------------------------------------------------------|

Verse 2

  A battle
  Descends     the         tree
  A piece 
  In the an-    nual       fate 


e|---------------------------------------------------------------------------|
B|-------0-----------3-----------0-------------------------------------------|
G|-----0---0-------0---0-------0---0--------0---0----------------------------|
D|---4-------4---4-------4---4-------4----2-------2--------------------------|
A|--------------------------------------4-----3------------------------------|
E|-0-----------0-----------0-------------------------------------------------|

Pre-Chorus
Chorus
Interlude  

Interlude#2

e|-7-----7----7-----7-----7-----7-----5--------------------------------------|
B|---0----0-----0-----0-----0-----0------------------------------------------|
G|-----0----0-----0-----0-----0-----0----------------------------------------|
D|---------------------------------------------------------------------------|
A|-7-----7----5-----5-----3-----3-----2--------------------------------------|
E|---------------------------------------------------------------------------|

e|-7-----7----7-----7-----10----7-----5--------------------------------------|
B|---0----0-----0-----0------------------------------------------------------|
G|-----0----0-----0-----0----------------------------------------------------|
D|---------------------------------------------------------------------------|
A|-7-----7----5-----5-----5-----------3--------------------------------------|
E|---------------------------------------------------------------------------|

e|-3-----3-----3-----3-----5-----5-----5-----5-------------------------------|
B|---3-----3-----3-----3-----5-----5-----5-----5-----------------------------|
G|-----0-----0-----0-----0-----0-----0-----0-----0---------------------------|
D|---------------------------------------------------------------------------|
A|-2-----------2-----------3-----------3-------------------------------------|
E|---------------------------------------------------------------------------|

e|-3-----3-----5-----5-----7--10--5h7p5--------------------------------------|
B|---3-----3-----5-----5---7------5------------------------------------------|
G|-----0-----0-----0-----0-0------5------------------------------------------|
D|--------------------------------7------------------------------------------|
A|-2-----2-----3-----3-----5-------------------------------------------------|
E|---------------------------------------------------------------------------|

Chorus

Interlude:
e|------------------------------------------------------------------------------|
B|-------1-----------1-----------1-----------1-----0-----0-----1-----0----------|
G|-----2---2-------2---2-------2---2-------2---2-----2-----2-----2-----2----2---|
D|---2-------2---2-------2---2-------2---2-------2-----2-----2-----2-----2------|
A|-3-----------3-----------0-----------0------------------------------------0---|
E|------------------------------------------------------------------------------|
End.
Thanks!

************************************

| /   slide up
| \   slide down
| h   hammer-on
| p   pull-off
| ~   vibrato
| +   harmonic
| x   Mute note
| b   Bend
| pb  Pre-bend
| br  Bend release
| pbr Pre-bend release
| brb Bend release bend

************************************
Добавлено: 31.12.2015
Вам также может быть интересно:
Другие материалы по этой песне:
  • Аккорды и текст

Страница создана 31.12.2015
http://primanota.ru/chad-pab/threnody-chords.htm
Привет, Гость.
Предлагаем пройти революционный курс по гитаре.
Подарок от PrimaNota.Ru, забирай!