PrimaNota.ru - самый крупный в мире бесплатный архив песенных текстов, аккордов, табулатур и нот


Chad Pab - Convergence - таба, видео

Регистрация Запомнить меня
Войти через:  Facebook Google Twitter Vk Yandex Mail.ru

Chad Pab - Convergence - таба, видео

Печатать
Просмотров: 56
-------------------------------------------------------------------------------
                             Convergence - Chad Pab
-------------------------------------------------------------------------------
Tabbed by:Chad Pab
E-mail: chad.pab@gmail.com

Tuning: The low E can either be left in standard or dropped down to D  for this song because it is not used.
EGDGBD

Slow and eerie: 
D|-------------------------------------------0-------------------------------|
B|---0---1-----------0---1-----------0---1-------1---0-----------------------|
G|-------------------------------------------------------0-------------------|
D|---0---1---1---1---0---1---1---1---0---1-------1---0-------0---0-----------|
G|-0---0---0---0---0---0---0---0---0---0---0---0---0---0---0---0-------------|
E|---------------------------------------------------------------------------|
Play twice then vocals start:

Playing a crowd in an unknown skin, not worth a second look
Familiar tones raise questions in the air, find answers through music and book

D|-------------------------------------------0-------------------------------|
B|---0---1-----------0---1-----------0---1-------1---0-----------------------|
G|-------------------------------------------------------0-------------------|
D|---0---1---1---1---0---1---1---1---0---1-------1---0-------0---0-----------|
G|-0---0---0---0---0---0---0---0---0---0---0---0---0---0---0---0-------------|
E|---------------------------------------------------------------------------|

Searching past the touch and sound from the ones that care

D|-----------------------8---------8-----8---------8-----------|
B|-3-----3---2-----2-----------8---------------8---------------|
G|-3-----3---2-----2-------------------------------------------|
D|-3-----3---2-----2-------------------------------------------|
G|-3-3-3-3-3-2-2-2-2-2---0---0---0---0---0---0---0---0---------|
E|-------------------------------------------------------------|


Unknown then remembered now, listen here she told me there

D|---------------------------------------------------------------|
B|-3-----3---2-----2---1-----1-----------------------------------|
G|-3-----3---2-----2---1-----1-----------------------------------|
D|-3-----3---2-----2---1-----1-----------------------------------|
G|-3-3-3-3-3-2-2-2-2-2-1-1-1-1-1---------------------------------|
E|---------------------------------------------------------------|

D|-------------------------------------------0-------------------------------|
B|---0---1-----------0---1-----------0---1-------1---0-----------------------|
G|-------------------------------------------------------0-------------------|
D|---0---1---1---1---0---1---1---1---0---1-------1---0-------0---0-----------|
G|-0---0---0---0---0---0---0---0---0---0---0---0---0---0---0---0-------------|
E|---------------------------------------------------------------------------|

Additional lyrics:

Aimless searching through endless discs there's always several to find
The name sat there with three lifetime albums once forgotten in my mind
Remembered her face, recalled his name after playing Steven's Cat
Grabbed two out of three, with Five Leaves Left, Pink Moon was my welcome mat

Thanks.

************************************

| /   slide up
| \   slide down
| h   hammer-on
| p   pull-off
| ~   vibrato
| +   harmonic
| x   Mute note
| b   Bend
| pb  Pre-bend
| br  Bend release
| pbr Pre-bend release
| brb Bend release bend

************************************
Добавлено: 21.06.2016
Другие материалы по этой песне:
  • Аккорды и текст

Страница создана 21.06.2016
http://primanota.ru/chad-pab/convergence-chords.htm
Привет, Гость.
Предлагаем пройти революционный курс по гитаре.
Подарок от PrimaNota.Ru, забирай!