PrimaNota.ru - самый крупный в мире бесплатный архив песенных текстов, аккордов, табулатур и нот


Chad Pab - Away From Sight - таба, видео

Регистрация Запомнить меня
Войти через:  Facebook Google Twitter Vk Yandex Mail.ru

Chad Pab - Away From Sight - таба, видео

Печатать
Просмотров: 145
https://www.facebook.com/chad.pab?ref=hl 
-------------------------------------------------------------------------------
                             Away From Sight - Chad Pab
-------------------------------------------------------------------------------
Tabbed by: Chad Pabianek
E-mail: chad.pab@gmail.com

The tuning for this song is almost in open G tuning but has the low E string left in E
Tuning: EGDGBD

Intro
e|---------------------------------------------------------------------------| 3x
B|---------------------------------------------------------------------------|
G|-----2-----0--------0----0-------------------------------------------------|
D|-----0-----0--------4----2-------------------------------------------------|
A|---------------------------------------------------------------------------|
E|-3-------3------0------0---------------------------------------------------|

e|---------------------------------------------------------------------------|
B|---------------------------------------------------------------------------|
G|-----2-----0------2/4---2p0------------------------------------------------|
D|-----0-----0-----------------2p0-------------------------------------------|
A|---------------------------------------------------------------------------|
E|-3-------3------0----------------------------------------------------------|

Verse 1

   So                   you think you 
  know                  the seasons

 but do                 you even 
  know                  the reasons
e|-----0---0-0-0------0---0-0-0------------------------------------------------| 
B|-----0---0-0-0------0---0-0-0------------------------------------------------|
G|-----2---0-0-0------0---0-0-0------------------------------------------------|
D|-----0---0-0-0------4---2-2-2------------------------------------------------|
A|-----x--------------x--------------------------------------------------------|
E|-3--------------0------------------------------------------------------------|
             
                        when the colours
e|-----0---0-0-0-----0------------------------------------------------------| 
B|-----0---0-0-0-----0------------------------------------------------------|
G|-----2---0-0-0-----2/4--2p0-----------------------------------------------|
D|-----0---0-0-0--------------2p0-------------------------------------------|
A|-----x--------------------------------------------------------------------|
E|-3--------------0---------------------------------------------------------|



Pre-chorus 

   fall
                     to where           you were           on            the
e|-2----2-2---2-2-2---2----2-2---2-2-2---4----4-4---4-4-4---4----4-4----4-4-4-----|
B|-1----1-1---1-1-1---1----1-1---1-1-1---3----3-3---3-3-3---3----3-3----3-3-3-----|
G|-0----0-0---0-0-0---0----0-0---0-0-0---0----0-0---0-0-0---0----0-0----0-0-0-----|
D|-0h2--2-2---2-2-2---0h2--2-2---2-2-2---0h4--4-4---4-4-4---0h4--4-4----4-4-4-----|
A|-0----0-0---0-0-0---0----0-0---0-0-0---0----0-0---0-0-0---0----0-0----0-0-0-----|
E|--------------------------------------------------------------------------------|


   ground

e|-----0---0-0-0------0---0-0-0------------------------------------------------| 3x
B|-----0---0-0-0------0---0-0-0------------------------------------------------|
G|-----2---0-0-0------0---0-0-0------------------------------------------------|
D|-----0---0-0-0------4---2-2-2------------------------------------------------|
A|-----x--------------x--------------------------------------------------------|
E|-3--------------0------------------------------------------------------------|

e|---------------------------------------------------------------------------|
B|---------------------------------------------------------------------------|
G|-----2-----0------2/4---2p0------------------------------------------------|
D|-----0-----0-----------------2p0-------------------------------------------|
A|---------------------------------------------------------------------------|
E|-3-------3------0----------------------------------------------------------|

Verse 2

   Now                  you're coming 
   back                 for air

   I saw                I saw you 
   try              and stare

e|-----0---0-0-0------0---0-0-0------------------------------------------------| 
B|-----0---0-0-0------0---0-0-0------------------------------------------------|
G|-----2---0-0-0------0---0-0-0------------------------------------------------|
D|-----0---0-0-0------4---2-2-2------------------------------------------------|
A|-----x--------------x--------------------------------------------------------|
E|-3--------------0------------------------------------------------------------|

Pre-chorus 2

    away
                                                              from my
  direction                                I only see a       reflec-
e|-2----2-2---2-2-2---2----2-2---2-2-2---4----4-4---4-4-4---4----4-4----4-4-4-----|
B|-1----1-1---1-1-1---1----1-1---1-1-1---3----3-3---3-3-3---3----3-3----3-3-3-----|
G|-0----0-0---0-0-0---0----0-0---0-0-0---0----0-0---0-0-0---0----0-0----0-0-0-----|
D|-0h2--2-2---2-2-2---0h2--2-2---2-2-2---0h4--4-4---4-4-4---0h4--4-4----4-4-4-----|
A|-0----0-0---0-0-0---0----0-0---0-0-0---0----0-0---0-0-0---0----0-0----0-0-0-----|
E|--------------------------------------------------------------------------------|

Chorus

-tion


      Sky  turns  grey           to
      night
      Moon     provides          the 
      light
e|----5---5-5-5---0--------0---0-0-0------------------------------------------|
B|----0---0-0-0---0--------0---0-0-0------------------------------------------|
G|----0---0-0-0---0--------0---0-0-0------------------------------------------|
D|----0---0-0-0---2/4\2p0--2---2-2-2------------------------------------------|
A|-------------------------4---4-4-4------------------------------------------|
E|-3--------------------------------------------------------------------------|

                        to  walk away from sight

e|-2----2-2---2-2-2---2----2-2---2-2-2---4----4-4---4-4-4---4----4-4----4-4-4-----|
B|-1----1-1---1-1-1---1----1-1---1-1-1---3----3-3---3-3-3---3----3-3----3-3-3-----|
G|-0----0-0---0-0-0---0----0-0---0-0-0---0----0-0---0-0-0---0----0-0----0-0-0-----|
D|-0h2--2-2---2-2-2---0h2--2-2---2-2-2---0h4--4-4---4-4-4---0h4--4-4----4-4-4-----|
A|-0----0-0---0-0-0---0----0-0---0-0-0---0----0-0---0-0-0---0----0-0----0-0-0-----|
E|--------------------------------------------------------------------------------|

Intro riff again:

e|---------------------------------------------------------------------------| 3x
B|---------------------------------------------------------------------------|
G|-----2-----0--------0----0-------------------------------------------------|
D|-----0-----0--------4----2-------------------------------------------------|
A|---------------------------------------------------------------------------|
E|-3-------3------0------0---------------------------------------------------|

e|---------------------------------------------------------------------------|
B|---------------------------------------------------------------------------|
G|-----2-----0------2/4---2p0------------------------------------------------|
D|-----0-----0-----------------2p0-------------------------------------------|
A|---------------------------------------------------------------------------|
E|-3-------3------0----------------------------------------------------------|

Verse 3

    Now                 the fields 
    burn                forever
    
    The field           the field of
    love                is ember
                        the river flows so

e|-----0---0-0-0------0---0-0-0------------------------------------------------| 
B|-----0---0-0-0------0---0-0-0------------------------------------------------|
G|-----2---0-0-0------0---0-0-0------------------------------------------------|
D|-----0---0-0-0------4---2-2-2------------------------------------------------|
A|-----x--------------x--------------------------------------------------------|
E|-3--------------0------------------------------------------------------------|

Pre-chorus 3

   blue
   and ends                                 what is goes through

e|-2----2-2---2-2-2---2----2-2---2-2-2---4----4-4---4-4-4---4----4-4----4-4-4-----|
B|-1----1-1---1-1-1---1----1-1---1-1-1---3----3-3---3-3-3---3----3-3----3-3-3-----|
G|-0----0-0---0-0-0---0----0-0---0-0-0---0----0-0---0-0-0---0----0-0----0-0-0-----|
D|-0h2--2-2---2-2-2---0h2--2-2---2-2-2---0h4--4-4---4-4-4---0h4--4-4----4-4-4-----|
A|-0----0-0---0-0-0---0----0-0---0-0-0---0----0-0---0-0-0---0----0-0----0-0-0-----|
E|--------------------------------------------------------------------------------|

Chorus 2

  Sky  turns  grey           to
      night
      Moon     provides          the 
      light
e|----5---5-5-5---0--------0---0-0-0------------------------------------------|
B|----0---0-0-0---0--------0---0-0-0------------------------------------------|
G|----0---0-0-0---0--------0---0-0-0------------------------------------------|
D|----0---0-0-0---2/4\2p0--2---2-2-2------------------------------------------|
A|-------------------------4---4-4-4------------------------------------------|
E|-3--------------------------------------------------------------------------|

                        to  walk away from sight

e|-2----2-2---2-2-2---2----2-2---2-2-2---4----4-4---4-4-4---4----4-4----4-4-4-----|
B|-1----1-1---1-1-1---1----1-1---1-1-1---3----3-3---3-3-3---3----3-3----3-3-3-----|
G|-0----0-0---0-0-0---0----0-0---0-0-0---0----0-0---0-0-0---0----0-0----0-0-0-----|
D|-0h2--2-2---2-2-2---0h2--2-2---2-2-2---0h4--4-4---4-4-4---0h4--4-4----4-4-4-----|
A|-0----0-0---0-0-0---0----0-0---0-0-0---0----0-0---0-0-0---0----0-0----0-0-0-----|
E|--------------------------------------------------------------------------------|

Repeat as desired until the end, then finish on: 

e|---------------------------------------------------------------------------|
B|---0-----------------------------------------------------------------------|
G|---0-----------------------------------------------------------------------|
D|---0-----------------------------------------------------------------------|
A|---0-----------------------------------------------------------------------|
E|---3-----------------------------------------------------------------------|

Thanks!
************************************

| /   slide up
| \   slide down
| h   hammer-on
| p   pull-off
| ~   vibrato
| +   harmonic
| x   Mute note
| b   Bend
| pb  Pre-bend
| br  Bend release
| pbr Pre-bend release
| brb Bend release bend

************************************
Добавлено: 29.06.2015
Другие материалы по этой песне:
  • Аккорды и текст

Страница создана 29.06.2015
http://primanota.ru/chad-pab/away-from-sight-chords.htm
Привет, Гость.
Предлагаем пройти революционный курс по гитаре.
Подарок от PrimaNota.Ru, забирай!