PrimaNota.ru - самый крупный в мире бесплатный архив песенных текстов, аккордов, табулатур и нот


Chad Fischer - The Rocker Score Suite - таба, видео

Регистрация Запомнить меня
Войти через:  Facebook Google Twitter Vk Yandex Mail.ru

Chad Fischer - The Rocker Score Suite - таба, видео

Печатать
Просмотров: 194
This is from the soundtrack to the movie "The Rocker", Which is totally awesome.
http://www.youtube.com/watch?v=XzO-Nlmh-PA
Here is a link to the song just in case.
Any corrections send to colinpowell111@hotmail.com

Intro
e|--------------------------------------------------------------|
B|--------------------------------------------------------------|
G|--------------------------------------------------------------|
D|--------99--9-11----------------------------------------------|
A|--7-7/11--11----11\--4/7-7-4-7/11-9--4/7-7-4-7-11-------------|
E|--------------------------------------------------------------|
 |
e|--------------------------------------------------------------|
B|--------------------------------------------------------------|
G|---------------------6/9-9-6-9/13-11-6/9-9-6-9-13-------------|
D|--------------------------------------------------------------|
A|--------------------------------------------------------------|
E|--------------------------------------------------------------|

Part2
              2nd time
e|-----------|--------------------------------------------------|
B|--9-12-7-2-|-/11-11-7-77-8-9----------------------------------|
G|--9-12-7-2-|-/11-11-7-77-8-9----------------------------------|
D|--9-12-7-2-|-/11-11-7-77-8-9----------------------------------|
A|-----------|--------------------------------------------------|
E|-----------|--------------------------------------------------|
 | Guitar 2 only comes in on the second time
e|--------------------------------------------------------------|
B|--------------------------------------------------------------|
G|-------11/9/11------------------------------------------------|
D|--------------------------------------------------------------|
A|-------9-/7/9-------------------------------------------------|
E|--------------------------------------------------------------|

e|--------------------------------------------------------------|
B|-/12-7-h8h9-------7-------------------------------------------|
G|-/12-7-h8h9-------7-------------------------------------------|
D|-/12-7-h8h9---77-75-------------------------------------------|
A|--------------------------------------------------------------|
E|--------------------------------------------------------------|
Part3
e|-0-4-5-2-0-4-----------------------------------------------------|
B|-0-5-5-2-0-4-----------------------------------------------------|
G|-1-6-6-3-1-5-----------------------------------------------------|
D|-2-6-7-4-2-6-----------------------------------------------------|
A|-2-4-7-4-2-6-----------------------------------------------------|
E|-0---5-2-0-4-----------------------------------------------------|
 |Repeat intro guitar 2, with a few minor differences, which you should be   able to 
out, with a slight variation on the end
e|--------------------------------------------------------------|
B|--------------------------------------------------------------|
G|----8----------------------8-9--6-9/13-11---------------------|
D|--10---------------10-6-10--6---------------------------------|
A|------7-47-47-11-9--------------------------------------------|
E|--------------------------------------------------------------|
Part4
e|-0--3-5-0-X2-2-5----------------------------------------------|
B|-0--3-7-2----4-7----------------------------------------------|
G|-1--4-7-2----4-7----7-9---------------------------------------|
D|-2--5-7-2----4-7---6------------------------------------------|
A|-2--5-5-0----2-5----------------------------------------------|
E|-0--3---------------------------------------------------------|

e|--------------------------------------------------------------|
B|-13hbr--------------------------------------------------------|
G|-------4-7-9-11--7-7/11-7-----7-9-12-----7-9-9b----9-7--------|
D|-------------------------9-7/9----12--7/9-------7/9---9-------|
A|--------------------------------------------------------------|
E|--------------------------------------------------------------|
 |
e|--------------------------------------------------------------|
B|----7-3-5---6-3-5---------------------------------------------|
G|--4----4--4----4----------------------------------------------|
D|---4-------6--------------------------------------------------|
A|--------------------------------------------------------------|
E|--------------------------------------------------------------|
Part5
Repeat guitar 2 of part 3, with this in it
e|------------------------------------------------------------|
B|----12--12--12----------------------------------------------|
G|-/13--13--13------------------------------------------------|
D|------------------------------------------------------------|
A|------------------------------------------------------------|
E|------------------------------------------------------------|

Part6 Heavy distortion
Don't forget E is now D
e|------------------------------------------------------------|
B|------------------------------------------------------------|
G|------------------------------------------------------------|
D|------------------------------------------------------------|
A|-0030500300305b5b-------------------------------------------|
D|-0030500300305b5b-------------------------------------------|
 |
e|------------------------------------------------------------|
B|-15~~~~~~-13gb 13<>*-13b~-----------------------------------|
G|------------------------------------------------------------|
D|------------------------------------------------------------|
A|------------------------------------------------------------|
E|------------------------------------------------------------|
Добавлено: 30.06.2012
Вам также может быть интересно:
Другие материалы по этой песне:
  • Аккорды и текст

Страница создана 30.06.2012
http://primanota.ru/chad-fischer/the-rocker-score-suite-chords.htm
Привет, Гость.
Предлагаем пройти революционный курс по гитаре.
Подарок от PrimaNota.Ru, забирай!