PrimaNota.ru - самый крупный в мире бесплатный архив песенных текстов, аккордов, табулатур и нот


CeZik - Forfiter Blues - таба, видео

Регистрация Запомнить меня
Войти через:  Facebook Google Twitter Vk Yandex Mail.ru

CeZik - Forfiter Blues - таба, видео

Печатать
Просмотров: 107
Уроки эстрадного вокала в Санкт-Петербурге
CeZik feat. Merc - Forfiter Blues

CeZik's homepage: http://cezik.com/aktualnosci/#/cezik-portfolio/

song link: https://www.youtube.com/watch?v=1b0uomM9z0g

Tabbed by: damienos

Tuning: Standard


[intro]
      
e|----/5-5-5-----/5-5-5-----/5---/5------------------------------------------------|
B|----/5-5-5-----/5-5-5-----/5---/5------------------------------------------------|
G|----/5-5-5-----/5-5-5-----/5---/5----5---5---------------------------------------|
D|---------------------------------------7---7-6-5---------------------------------|
A|---------------------------------------------------------------------------------|
E|---------------------------------------------------------------------------------|

[verse 1] 
    P.M.
e|---------------------------------------------------------------------------------|
B|---------------------------------------------------------------------------------|
G|---------------------------------------------------------------------------------|
D|--2---2--4---4--5---5--2--2--2---------------2---2--4---4--5---5--2--2--2--------|
A|--0---0--0---0--0---0--0--3--4---------------0---0--0---0--0---0--0--3--4--------|
E|---------------------------------------------------------------------------------|
                      Okay szwagier jest tutaj przy brzegu
    (P.M.                                                 )
e|---------------------------------------------------------------------------------|
B|---------------------------------------------------------------------------------|
G|--2---2--4---4--5---5--2--2--2---------------2---2--4---4--4h5p4---2-------------|
D|--0---0--0---0--0---0--0--3--4---------------0---0--0---0--------5---5-4-3-------|
A|---------------------------------------------------------------------------------|
E|---------------------------------------------------------------------------------|
                      I'm gonna give'ema       chicken
    P.M.
e|---------------------------------------------------------------------------------|
B|---------------------------------------------------------------------------------|
G|---------------------------------------------------------------------------------|
D|--2---2--4---4--5---5--2--2--2---------------2---2--4---4--5---5--2--2--2--------|
A|--0---0--0---0--0---0--0--3--4---------------0---0--0---0--0---0--0--3--4--------|
E|---------------------------------------------------------------------------------|
                         Widzisz jak je?                               No

e|--2--2-------------2--2-------------0--0-----------------------------------------|
B|--2--2-------------2--2-------------0--0-----------------------------------------|
G|--2--2----x-x-x----2--2----x-x-x----1--1----x-x-x--------------------------------|
D|--2--2----x-x-x----2--2----x-x-x----0--0----x-x-x--------------------------------|
A|--4--4----x-x-x----4--4----x-x-x----2--2----x-x-x--------------------------------|
E|--2--2----x-x-x----2--2----x-x-x----0--0----x-x-x--------------------------------|
   It is fourfeet'  At least fourfeet' szwagier           
                 (P.M.                           )                     
e|--0-------------------------------------------------------------------------------|
B|--0-------------------------------------------------------------------------------|
G|--1-------------------------------------------------------------------------------|
D|--0------------2---2--4---4--5---5--2--2--2---2-----------7/8/9-------------------|
A|--2------------0---0--0---0--0---0--0--3--4---0-----------5/6/7-------------------|
E|--0-------------------------------------------------------------------------------|
    At least fourfeet'             At least fourfeet'

[verse 2]
    P.M.
e|---------------------------------------------------------------------------------|
B|---------------------------------------------------------------------------------|
G|---------------------------------------------------------------------------------|
D|--2---2--4---4--5---5--2--2--2---------------2---2--4---4--5---5--2--2--2--------|
A|--0---0--0---0--0---0--0--3--4---------------0---0--0---0--0---0--0--3--4--------|
E|---------------------------------------------------------------------------------|
                            No                 bierz tą kurwa kurę
    (P.M.                                                 )
e|---------------------------------------------------------------------------------|
B|---------------------------------------------------------------------------------|
G|--2---2--4---4--5---5--2--2--2---------------2---2--4---4--4h5p4---2-------------|
D|--0---0--0---0--0---0--0--3--4---------------0---0--0---0--------5---5-4-3-------|
A|---------------------------------------------------------------------------------|
E|---------------------------------------------------------------------------------|
                         There you             go
    P.M.
e|---------------------------------------------------------------------------------|
B|---------------------------------------------------------------------------------|
G|---------------------------------------------------------------------------------|
D|--2---2--4---4--5---5--2--2--2---------------2---2--4---4--5---5--2--2--2--------|
A|--0---0--0---0--0---0--0--3--4---------------0---0--0---0--0---0--0--3--4--------|
E|---------------------------------------------------------------------------------|
           Kurwa, forfiter                                       jeszcze mu rzucę
 
e|--0--0-------------0--0-------------5--5-------------5--5------------------------|
B|--0--0-------------0--0-------------7--7-------------7--7------------------------|
G|--1--1----x-x-x----1--1----x-x-x----5--5----x-x-x----5--5----x-x-x---------------|
D|--2--2----x-x-x----2--2----x-x-x----7--7----x-x-x----7--7----x-x-x---------------|
A|--2--2----x-x-x----2--2----x-x-x----5--5----x-x-x----5--5----x-x-x---------------|
E|--0--0----x-x-x----0--0----x-x-x----5--5----x-x-x----5--5----x-x-x---------------|
                          E!       Predator, kurwa

e|--2--2------------------2--2------------------0--0-------------------------------|
B|--2--2------------------2--2------------------0--0-------------------------------|
G|--2--2----x-x-x---------2--2----x-x-x---------1--1----x-x-x----------------------|
D|--2--2----x-x-x---------2--2----x-x-x---------0--0----x-x-x----------------------|
A|--4--4----x-x-x---------4--4----x-x-x---------2--2----x-x-x----------------------|
E|--2--2----x-x-x---------2--2----x-x-x---------0--0----x-x-x----------------------|
Jest piękny (it's    Jest piękny  (it's    Jest piękny  (it's beautiful)      
           beautiful)            beautiful)             
                        P.M.                           
e|--0--0---------------------------------------------------------------------------|
B|--0--0---------------------------------------------------------------------------|
G|--1--1---------------------------------------------------------------------------|
D|--0--0----x-x-x-------2---2--4---4--5---5--2--2--2---2---------------------------|
A|--2--2----x-x-x-------0---0--0---0--0---0--0--3--4---0---------------------------|
E|--0--0----x-x-x------------------------------------------------------------------|
Jest piękny  (it's beautiful)    Uuuu                      O kurwa!

e|---------------------------------------------------------------------------------|
B|----------5-----5-----4-----3----------------------------------------------------|
G|------------6-----6-----5-----4--------------------------------------------------|
D|--4-5-6-7-----5-----4-----3------2-----7/8--9------------------------------------|
A|---------------------------------------5/6--7------------------------------------|
E|---------------------------------------------------------------------------------|
                      Płynie mi do, do...

[solo]  (during solos second guitar plays chords)
    A
e|---------------------------------------------------------------------------------|
B|------------------------------------------13-------------------------------------|
G|--/14-14-14-/14-14-14-/14-14-14-/14-14-14----14-12-14-12-------------------------|
D|---------------------------------------------------------14-12-10----------10----|
A|------------------------------------------------------------------12-10-12-------|
E|---------------------------------------------------------------------------------|
    Uciekaj   kurwa      stąd!
    D
e|---------------------------------------------------------------------------------|
B|---------------------------------------------------------------------------------|
G|--------------------------------------------12-----------------------------------|
D|--12-10----------------10----10-12-10-12/14--------------------------------------|
A|--------12-10-9--10/12----12-----------------------------------------------------|
E|---------------------------------------------------------------------------------|
  Gierary Hirr                    Fuck,       men
          A
e|--------------------------------------------------------|
B|--------------------------------------------------------|
G|--------14----14h16-16/18-------------------------------|
D|--14h16----16-------------------------------------------|
A|--------------------------------------------------------|
E|--------------------------------------------------------|
                           Patrz jaki kurwa szwagier
          A                              E
e|---------------------------12---------------------------|
B|------------------------------14------------------------|
G|--------14----14h16-16/18--------14-12------------------|
D|--14h16----16--------------------------14-12-11---------|
A|------------------------------------------------12------|
E|--------------------------------------------------------|
                                Popatrz jaka franca
    E                          D                  
e|--------------------------------------------------------|
B|--------------------------------------------------------|
G|-----------------12----12-12/14--12----12--12/14--------|
D|-----11-12-12/14----14--------------14------------------|
A|--12----------------------------------------------------|
E|--------------------------------------------------------|
                                      Kurwa, chce mi wskoczyć na tego...
       A
e|--------------------------------------------------------|
B|--15/17--17--------17-15---------17-15------------------|
G|-------------------------17-14---------17-14\-----------|
D|--------------------------------------------------------|
A|--------------------------------------------------------|
E|--------------------------------------------------------|
    Uciekaj!                                  Fuck!
    F#m    F#m    F#m    F#m    E      E      E      E
e|--2------2------2------2------0------0------0------0----|
B|--2------2------2------2------0------0------0------0----|
G|--2------2------2------2------1------1------1------1----|
D|--4------4------4------4------2------2------2------2----|
A|--4------4------4------4------2------2------2------2----|
E|--2------2------2------2------0------0------0------0----|
    Gary muvaut   Gary muvaut  Keep'em at bay Keep'em at bay  Kurwa !

[solo 2]
    A
e|--------17-17-------17-17-------17-17-------17-17--------------------------------|
B|---------------------------------------------------------------------------------|
G|--19b21------ 19b21-------19b21-------19b21--------------------------------------|
D|---------------------------------------------------------------------------------|
A|---------------------------------------------------------------------------------|
E|---------------------------------------------------------------------------------|
    A
e|--20-17--------------------------------------------------------------------------|
B|--------20-17-20-17----17--------------------------------------------------------|
G|--------------------19----19-17-19-17----17--------------------------------------|
D|--------------------------------------19----19-17-19-----------------------------|
A|---------------------------------------------------------------------------------|
E|---------------------------------------------------------------------------------|
    D
e|---------------------------------------------------------------------------------|
B|---------------------------------------------------------------------------------|
G|--17/19-17-------------------17----17--19-19-19-17-17-17-16-16-16-17-17-17-------|
D|-----------19-17-16----17/19----19-----------------------------------------------|
A|---------------------------------------------------------------------------------|
E|---------------------------------------------------------------------------------|

    A
e|--------------------------------------------------------------------|
B|--------------------------------------------------------------------|
G|--12/14~-------------------------------12----12-14-----------12-----|
D|---------------------------------12-14----14--------------------14--|
A|--------------------------------------------------------------------|
E|--------------------------------------------------------------------|
          Zamierzam dać mu kurczaka   Jest piękny (it's beautiful)  
    D
e|--------------------------------------------------------------------|
B|--------------------------------------------------------------------|
G|--12----------------------------------------------------------------|
D|-----14-12-10-----------------------10--12b13br12--10--12b13br12----|
A|-----------------12-12-12-10-10-12----------------------------------|
E|--------------------------------------------------------------------|
    Jest piękny (it's beautiful)  I'm gonna give him a chicken
                         A
e|--------------------------------------------------------------------|
B|--15/17-15-13-15----15b17-------------------------------------------|
G|--------------------------------------------------------------------|
D|--------------------------------------------------------------------|
A|--------------------------------------------------------------------|
E|--------------------------------------------------------------------|
   Widzisz jak je?    Hej, wskoczyłby mi do tego  Hold on, i gotta wyłączyć na chwilę



************************************

|P.M. palm muted
| /   slide up
| \   slide down
| h   hammer-on
| p   pull-off
| ~   vibrato
| x   Mute note
| b   Bend
| br  Bend release

************************************

enjoy!
Добавлено: 08.06.2016
Другие материалы по этой песне:
  • Аккорды и текст

Страница создана 08.06.2016
http://primanota.ru/cezik/forfiter-blues-chords.htm
Привет, Гость.
Предлагаем пройти революционный курс по гитаре.
Подарок от PrimaNota.Ru, забирай!