PrimaNota.ru - самый крупный в мире бесплатный архив песенных текстов, аккордов, табулатур и нот


Cetin, Yavuz - Bilmem Neden Inat Ettim - аккорды и текст, видео

Регистрация Запомнить меня
Войти через:  Facebook Google Twitter Vk Yandex Mail.ru

Cetin, Yavuz - Bilmem Neden Inat Ettim - аккорды и текст, видео

Печатать
Просмотров: 68
Bilmem Neden Inat Ettim
Cetin, Yavuz
 e|----2----------4----------5----------7---------0--------x----|
 B|----3----------3----------7----------9---------0--------3----|
 G|----2----------4----------7----------9---------2--------2----|
 D|----4----------6----------5----------7---------2--------2----|
 A|----2----------4----------5----------7---------0--------x----|
 E|----x----------x----------x----------x---------x--------x----|
      Bm7        C#m7      Gmaj9      Amaj9      A5      Asus4


  A                      E
  Dün gece son defa konuştuk
  A                    E
  Nehirin sonunda buluştuk
  Bm7       C#m7    Gmaj9   Amaj9    A5
  Hiç üzülmüyorum desem        yalan olur

  A                      E
  İstediklerin bende yok belki
  A                  E
  İstemediklerin çok belki
  Bm7      C#m7   Gmaj9      Amaj9       A5
  Bana şans vermeyi        hiç istemedin ki

B               A            E
  Seni tanımak için çok çaba sarf ettim
    C            A
  Başından vazgeçmeliydim
     C         D      A5
  Bilmem neden inat ettim?


Solo

e|-----------5---5------------------------------|
B|-------5---5h7-5----5---5----2----------------|
G|---4/6---6----------4h6-4----2h4-2-------2----|
D|----------------------------------4---2-4-4---|
A|----------------------------------------------|
E|----------------------------------------------|

e|----------------------------5-5-7---5-2---2---------------------------------x-----|
B|-----------------5-5-7---5/7-----------5p2-5p2-5p2---2----------------------x-----|
G|------2-2-4---4/6-----------------------------4---4p2-4p2-4p2---2-----------x-----|
D|---2h4---------------------------------------------------4---4p2-4p2-4p2----x-----|
A|--------------------------------------------------------------------4---4p2-x-----|
E|----------------------------------------------------------------------------x-5b-2|


  A                    E
  Senin için dağları aştım
  A                   E
  Bulutları avcuna koydum
  Bm7    C#m7          Gmaj9   Amaj9   A5
  GülüşÃ¼nden bir parça istedim    vermedin

  A                    E
  Senin için kendimi aştım
  A                     E
  İnan buna ben bile şaştım
  Bm7        C#m7      Gmaj9   Amaj9         A5
  Her şey bitti dediğinde      biraz aptal oldum

B               A            E
  Seni tanımak için çok çaba sarf ettim
    C            A
  Başından vazgeçmeliydim
     C         D      A5
  Bilmem neden inat ettim?



Saksafon Solo  :  A E A E Bm7 C#m7 Gmaj9 Amaj9 A5  (X2)



B               A            E
  Seni tanımak için çok çaba sarf ettim
    C            A
  Başından vazgeçmeliydim
     C         D      A5
  Bilmem neden inat ettim?

     Asus4      Asus4   A5
  Bilmem neden inat   ettim? ...
Добавлено: 17.04.2014
Вам также может быть интересно:
Другие материалы по этой песне:
  • Аккорды и текст

Страница создана 30.01.2014
http://primanota.ru/cetin-yavuz/bilmem-neden-inat-ettim-chords.htm
Привет, Гость.
Предлагаем пройти революционный курс по гитаре.
Подарок от PrimaNota.Ru, забирай!