PrimaNota.ru - самый крупный в мире бесплатный архив песенных текстов, аккордов, табулатур и нот


César Menotti & Fabiano - Evidencias - аккорды и текст, видео

Регистрация Запомнить меня
Войти через:  Facebook Google Twitter Vk Yandex Mail.ru

César Menotti & Fabiano - Evidencias - аккорды и текст, видео

Печатать
Просмотров: 31
Авторы: José Augusto

Evidencias
César Menotti & Fabiano
Tom: A

 Intro: E  E5+  A  F#m  B7  E  B7
E|-------------------------------------------------|
B|----------------------8----8-7-7-----------------|
G|-8-7-8-10-8--8-7-8-10---8--------10-10-8-8-7-8---|
D|-------------------------------------------------|
A|-------------------------------------------------|
E|-------------------------------------------------|



E|-------------------------------------------------|
B|----------------------8----8-7-7-----------------|
G|-8-7-8-10-8--8-7-8-10---8--------10-10-8-8-7-8---|
D|-------------------------------------------------|
A|-------------------------------------------------|
E|-------------------------------------------------|



E|----7--------------------------------------------|
B|------10-----------------------------------------|
G|--7----------------------------------------------|
D|-------------------------------------------------|
A|-------------------------------------------------|
E|-------------------------------------------------|


              E                B/D#
Quando eu digo que deixei de te    amar
              C#m    Bm  E7
É porque eu te amo
             A
Quando eu digo que não quero
       C#7
Mais você
     F#m             F#m7
É porque eu te quero
            B7
eu tenho medo de te dar meu
     G#7
Coração
           C#m
E confessar   que eu estou
        C#m/B
Em tuas mãos
         F#
Mas não posso imaginar
                 F#/Bb
O que vai ser de mim
                    A/B
Se eu te perder um dia
       E
Eu me afasto e me defendo
   B/D#
De você

Mas depois me
            C#m  Bm  E7
        entrego
         A
Faço tipo, falo coisas que
        C#7
Eu não sou
      F#m         F#m7
Mas depois eu nego
          B7
Mas a verdade é que sou
           G#7
Louco por você
          C#m       C#m/B
E tenho medo de pensar
         Am
Em te perder
          E
Eu preciso aceitar que não dá
B7
Mais pra
            A
Separar as nossas
        E       A/B
        vidas

E
E nessa loucura de dizer

Que não te quero
         G#7
Vou negando as aparências,

Disfarçando as evidências
             A
Mas pra que viver fingindo
           F#m
Se eu não posso enganar
        B7
Meu coração
    F#m        B7/4  B7
Eu sei     que te a  mo,
E
Chega de mentiras

De negar o meu desejo
          G#7
Eu te quero mais que tudo

eu preciso do seu beijo
          A
Eu entrego a minha vida
        F#m
Pra você    fazer o que quiser
     B7
De mim
      F#m         B7
Só quero  ouvir você dizer
    E
Que sim
          E5+
Diz que é verdade que tem
       A   A E/G#
Saudade
       F#m          B7
Que ainda você pensa muito
    E
Em mim
              E5+
Diz que é verdade que tem
     A    A E/G#
Saudade
      F#m            B7
Que ainda você quer viver
     E
Pra mim
Добавлено: 10.02.2016
Другие материалы по этой песне:
  • Аккорды и текст

Страница создана 10.02.2016
http://primanota.ru/cesar-menotti-and-fabiano/evidencias-chords.htm
Привет, Гость.
Предлагаем пройти революционный курс по гитаре.
Подарок от PrimaNota.Ru, забирай!