PrimaNota.ru - самый крупный в мире бесплатный архив песенных текстов, аккордов, табулатур и нот


Cesar Huesca - Rockin Red Carpetincomplete - таба

Регистрация Запомнить меня
Войти через:  Facebook Google Twitter Vk Yandex Mail.ru

Cesar Huesca - Rockin Red Carpetincomplete - таба

Печатать
Просмотров: 118
HI PEOPLE WELL THIS IS A GREAT SONG AND I PULLED OUT BY EAR JUST A PART OF THE
SONG I HOPE YOU LIKE IT

standar tuning

RIFF1
e---------------------------------------------------|
B---------------------------------------------8-----|
G-------------------------------------5-------7-----|
D--2----------5---------7p5--------5--5-----7-------|
A--0-----5/7-----(0)(0)-----7p5--3----3---5---------|
E---------------------------------------------------|

e----------------------------------------------------|
B----------------------------------------------------|
G-------------------------------------5--------0-----|
D--2----------5---------7p5--------5--5-----0--0-----|
A--0-----5/7-----(0)(0)-----7p5--3----3--------------|
E-----------------------------------------3----------|

e---------------------------------------------------|
B---------------------------------------------8-----|
G-------------------------------------5-------7-----|
D--2----------5---------7p5--------5--5-----7-------|
A--0-----5/7-----(0)(0)-----7p5--3----3---5---------|
E---------------------------------------------------|

e----------------------------------------------------|
B-------------------------------------------3--3-----|
G-------------------------------------5-----0--0-----|
D--2----------5---------7p5--------5--5-----0--0-----|
A--0-----5/7-----(0)(0)-----7p5--3----3--------------|
E-----------------------------------------3----------|

RIFF2
e--------------------------------------------------------------------------|
B--------------------------------------------------------------------------|
G---14-------14-------14----17-------19-------19-----14-------14-------14--|
D--------------------------------------------------------------------------|
A------12-12----12-12----12----15-17----17-17-----17----12-12----12-12-----|
E--------------------------------------------------------------------------|

e---------------------------------|
B---------------------------------|
G------17-------------------------|
D---------------17-------17-------|   AND REPEAT AGAIN ALL RIFF 2
A---12----15----------------------|
E------------15----15-15-----15---|

RIFF 3
e-----------------------------------------------------------------------|
B-----------------------------------------------------------------------|
G--2--------7-----5------------------------------------2--------7-----5-|
D--2--------7-----5------5----------7-------7--(7)(5)--2--------7-----5-|
A----(0)(0)---(0)---0h2--3--(3)(3)--5--(5)--5--(5)(3)----(0)(0)---(0)---|
E-----------------------------------------------------------------------|

e---------------------------------------|
B---------------------------------------|
G---------------------------------------|
D-------5-------------------------------|   REPEAT AGAIN RIFF 3
A--0h2--3--(3)(3)--5-------5--(5)(2)----|
E------------------3--(3)--3--(3)(0)----|

e---------------------5-------------------------------------------------|
B---8b10--8b10r8--5-8---------------------------------------------------|
G------------------------7b9--7b9r7--5-7-5------------------------5-----|
D-------------------------------------------7------------5--7--5--5--7--|
A--------------------------------------------------5h6h7----------------|
E-----------------------------------------------------------------------|

e---------------------5-------------------------------------------------|
B---8b10--8b10r8--5-8------------------8--------------------------------|
G------------------------7b9--7b9r7--5-7-5--------------5-------7--7----|
D-------------------------------------------7-----------5-------7--7----|
A--------------------------------------------------3/7-----7/9----------|
E-----------------------------------------------------------------------|

e----------------------------------------------------------------------------|
B---15b17--15b17r15--13--15--17------------------------13--------------------|
G-----------------------------------12b14--12b14r12--9-----12--12/14---------|
D----------------------------------------------------------------------------|
A----------------------------------------------------------------------------|
E----------------------------------------------------------------------------|

(THE PART INSIDE OF "**" DO NOT SOUND LIKE THE SONG BUT I THINKS IT SOUND GOOD YOU ALSO 
IMPROVE)
e---------------------------------------------------------------------------|
B------------------------15-----15-------------15b17--15b17r15--13--15--17--|
G--------------------12-----12--14b16r14--12*-------------------------------|
D------------12--14---------------------------------------------------------|
A--*12h13h14----------------------------------------------------------------|
E---------------------------------------------------------------------------|

e--------------------------------------------------------------------------|
B-----------------------13-------------------------13--15--17--17h20p17----|
G---12b14--12b14r12--9-----9--12/14---------12-----------------------------|
D------------------------------------12/14-----14--------------------------|
A--------------------------------------------------------------------------|
E--------------------------------------------------------------------------|

e---------------------------------------------------------|
B--15h17p15--13-----12b13--12--10h12p10--10/12\8/10-------|
G---------------------------------------------------------|
D---------------------------------------------------------|
A---------------------------------------------------------|
E---------------------------------------------------------|

thats all ive pulled till now i will try to put it all... thanks enjoy
PD I KNOW MI ENGLISH IS NOT THE BEST JEJE IM A MEXICAN GUY JUST LIKE CESAR JAA
Добавлено: 30.07.2012
Вам также может быть интересно:
Другие материалы по этой песне:
  • Аккорды и текст

Страница создана 30.07.2012
http://primanota.ru/cesar-huesca/rockin-red-carpetincomplete-chords.htm
Привет, Гость.
Предлагаем пройти революционный курс по гитаре.
Подарок от PrimaNota.Ru, забирай!