PrimaNota.ru - самый крупный в мире бесплатный архив песенных текстов, аккордов, табулатур и нот


Cesar Huesca - Rockin Red Carpet - таба, видео

Регистрация Запомнить меня
Войти через:  Facebook Google Twitter Vk Yandex Mail.ru

Cesar Huesca - Rockin Red Carpet - таба, видео

Печатать
Просмотров: 99
One of youtube's best guitarists, it seems every time I look at the video I see requests 
tabs so here's one at least. Hope you enjoy.

Standard Tuning,


Intro Riff:
e-----------------------------------------------|
B-----------------------------------------8-----|
G---------------------------------7-------7-----|
D--2----------------7p5--------5--------7-------|
A--0-----5/7~-7---------7p5--3--------5---------|
E-----------------------------------------------|

e-----------------------------------------------------|
B--------------------------------------------3--3-----|
G-------------------------------------7------0--0-----|
D--2----------5---------7p5--------5---------0--0-----|
A--0-----5/7----------------7p5--3--------------------|
E----------------------------------------3-3----------|


Intro Solo
e--------------------------------------------------------------------------|
B--------------------------------------------------------------------------|
G---14-------14-------14----17-------19-------19-----14-------14-------14--|
D--------------------------------------------------------------------------|
A------12-12----12-12----12----15-17----17-17-----17----12-12----12-12-----|
E--------------------------------------------------------------------------|

e---------------------------------| X2
B---------------------------------|
G------17-------------------------|
D---------------17-17----17-------|     I know this bits wrong but
A---12----15----------------------|     I think it works at least.
E------------15-------15----------|


Main Riff:
e-------------------------------------------------------|
B-------------------------------------------------------|
G--2----x----7-----5------------------------------------|
D--2----x----7-----5------5----x----7-----7----5/4------|
A--0----x------------0h2--3----x----5-----5----3/2------|
E-------------------------------------------------------|

Last time play this

e-------------------------------------------------------|
B-------------------------------------------------------|
G--2----x----7-----5---------------------------------2--|
D--2----x----7-----5------5--------------------------2--|
A--0----x------------0h2--3----x----5-----5----5/2---0--|
E------------------------------x----3-----3----3/0------|

Lead Riff:
e----------------------5--------------------------------------------------|
B---8b10--8b10r8--5-8~----------------------------------------------------|
G-------------------------7b9--7b9r7--5-7~-5----------------------------7-|
D---------------------------------------------7~----------5----5--7--5--7-|
A----------------------------------------------------5h7-----7------------|
E-------------------------------------------------------------------------|

e----------------------5--------------------------------------------------|
B---8b10--8b10r8--5-8~------------------8---------------------------------|
G-------------------------7b9--7b9r7--5-7-5--------------5-------7--7-----|
D-------------------------------------------7~-----------5-------7--7-----|
A---------------------------------------------------3/7-----7/9-----------|
E-------------------------------------------------------------------------|

e---------------------------------------------------------------------|
B---15b17--15b17r15--13--15~--17------------------------13~-----------|
G-----------------------------------12b14--12b14r12--9------12--12/14-|
D---------------------------------------------------------------------|
A---------------------------------------------------------------------|
E---------------------------------------------------------------------|

e------------------------|
B------------------------|
G-------12-------14-14---|
D-12/14----14/16---------|
A------------------------|
E------------------------|

And I'm afraid that's all I've worked out.
Добавлено: 06.03.2012
Вам также может быть интересно:
Другие материалы по этой песне:
  • Аккорды и текст

Страница создана 06.03.2012
http://primanota.ru/cesar-huesca/rockin-red-carpet-chords.htm
Привет, Гость.
Предлагаем пройти революционный курс по гитаре.
Подарок от PrimaNota.Ru, забирай!